Авторские песни - История сосны из Metal Family by ЧёЗаУродыНаСцене, аккорды

Прокрутка
Тональность
Шрифт
100
Em
В тот день, когда я уродился
G
В лесу корни пустила шишка
C
Я ощутил связь между нами
Am
Ты и я. Мы словно связаны цепями.
Em
Я знал, что ты растёшь среди деревьев
G
Найти тебя не стоило усердий
C
И хоть ты голосом не отвечаешь
Am
Я чувствую связь. И мне её хватает.

E|------------------х---------------------х--
B|------------------х---------------------х--
G|------------------х---------------------х--
D|---2--------------х---------------------х--
A|---2--------------х---------------------х--
E|---0-3-0-0--0-3-0-х--0-0-3-0-0--0-3-0-0-х--

Em                      G
Пройдут года подростком стану я
         C                Am
Но не изменится возраста разница
Em              G
Ты навсегда моя ровесница
          C                 Am
Из года в год растём и развиваемся
Растёт сосна!

D|----------------------------
A|----------------------------
E|--0-0-3-0-7-5-3-/5-0-3-0-0-

Растёт сосна! 

D|----------------------------
A|----------------------------
E|--0-0-3-0-7-5-3-/5-0-3-0-0-

А с ней и я! 

D|----------------------------
A|----------------------------
E|--0-0-3-0-7-5-3-/5-0-3-0-0-

Одна семья!

D|----------------------------
A|----------------------------
E|--0-0-3-0-7-5-3-/5-0-3-0-0-
 
Одна судьба!

Em
Прошло лет наверное шестнадцать
G
И я стал под тобой девчонок лапать
C
С одной такой не очень повезло
Am
Мы вместе напились и всё зашло слишком далеко
Em
И я стал окольцованным папашей
G
Но нет. Не стала хуже связь наша
C
Своих детей к тебе я приводил
Am
Смотрите, поглядите. НИФИГА! У ТЕБЯ ТОЖЕ ДЕТИ!

E|------------------х---------------------х--
B|------------------х---------------------х--
G|------------------х---------------------х--
D|---2--------------х---------------------х--
A|---2--------------х---------------------х--
E|---0-3-0-0--0-3-0-х--0-0-3-0-0--0-3-0-0-х--

Em                      G
Пройдут года и взрослым стану я
         C                Am
Но не изменится возраста разница
Em                G
Ты навсегда моя ровесница
          C                   Am
Из года в год цветём и распускаемся

D|----------------------------
A|----------------------------
E|--0-0-3-0-7-5-3-/5-0-3-0-0-

Растёт сосна! 

D|----------------------------
A|----------------------------
E|--0-0-3-0-7-5-3-/5-0-3-0-0-

А с ней и я! 

D|----------------------------
A|----------------------------
E|--0-0-3-0-7-5-3-/5-0-3-0-0-

Одна семья!

D|----------------------------
A|----------------------------
E|--0-0-3-0-7-5-3-/5-0-3-0-0-
 
Одна судьба!

 glissando E по всему грифу

Em G C Am }x2

E|--------------------------------------------------------х--
B|--------------------------------------------------------х--
G|--------------------------------------------------------х--
D|--------------------------------------------------------х--
A|--------------------------------------------------------х--
E|-0-3-0-0--0-3-0-0--0-3-0-0--0-3-0-0--0-3-0-0--0-3-0-0-0-х--

Em                    G
Пройдут года и старым стану я
         C                Am
Но не изменится возраста разница
Em                 G
Ты навсегда моя ровесница
        C                   Am
Но отведённый срок наш отличается
F#m                     A [5 7 7 6 5 5]
Пройдут года, не станет нас с тобой
         D [X 5 7 7 7 5]   Bm
Меня бандит убил, тебя лесник срубил
F#m                  A [5 7 7 6 5 5]         
Но кто-то из тебя гитару сколотил
            D [X 5 7 7 7 5]    Bm
И в месте, где я жил, он песню сочинил

О том как...

D|----------------------------
A|----------------------------
E|--0-0-3-0-7-5-3-/5-0-3-0-0-

Растёт сосна!

D|----------------------------
A|----------------------------
E|--0-0-3-0-7-5-3-/5-0-3-0-0-

Растёт сосна!

D|----------------------------
A|----------------------------
E|--0-0-3-0-7-5-3-/5-0-3-0-0-

Растёт сосна!

D|-----------------------------------
A|-----------------------------------
E|-0-7-5-3-5-0-7-5-3-5-0-7-5-3-5-0---

Em

Комментарий автора:

настрой гитары на лад ниже, в Ре
бой 6-ка
 
 
Свернуть Распечатать

Аппликатуры аккордов

Аккорд EmАккорд GАккорд CАккорд AmАккорд EАккорд F#mАккорд AАккорд DАккорд Bm
shuvkashuvka
автор подбора аккордов
10,793 18 22.07.2021

Видео