Авторские песни - AlphaCR - На День Рождения!, аккорды

Прокрутка
Тональность
Шрифт
100
 C 2-1--3-1--4-2--4-2  A C 2-1--3-1--4-2--4-2 D G A F C (Fl) 

C             D        C  
А алые розы ждут вручения! 
    E       A
Яркие и светлые! 
C        F          G             C
На новый праздник "Твой День Рождения!" 

Проигрыш: C G} x4

Куплет:
E--7--5--3-2-3-------------------------------------7-8-7-8-9--
B-------------------6--4--2-1-2------------------------------------
G-------------------------------------5--3-5-2----------------------
D-----------------------------------------------------------------------
A-------------------------------------------------------------------------8
E-----------------------------------------------------------------------8

C
Это твой день! 
G
На нём твоя тень! 
F
Всё для тебя, 
C         D
Нежно, любя! 

G            C      F
Подарок свой тебе вручу, 
G        C   A    C
Нежно на тебя я посмотрю! 
F
И скажу... 

Проигрыш:  D G

C
Это твой день! 
G
На нём твоя тень! 
F
Всё для тебя, 
C         D
Нежно, любя! 


E-12-12-12-12--------------------10-10-10-10-----------
B---------------------10-10-10-10------------------8-8-8-8- |}x2
C

Комментарий автора:

Бой вверх-вниз,  во вступление написаны струны которые надо играть после удара аккорда,к последним 5 аккордам струны не написал, так как лень было, вы поймёте как играть
(Fl) - флажолет на 12 ладу мягко. {X4  или {x2 означает сыграть эти моменты столько раз, сколько написано. Играть мягко, плавно, в нормальном темпе, не быстро. Удачи) 
 
 
Свернуть Распечатать

Аппликатуры аккордов

Аккорд CАккорд AАккорд DАккорд GАккорд FАккорд E
AlphaCRAlphaCR
автор подбора аккордов
446 1 15.09.2021