Авторские песни - Глиттер Кова - Стас Барецкий, аккорды

Прокрутка
Тональность
Шрифт
100
Рифф 1:

d -9--7--9--9--9--10--9-----9--7--9--9--9--7--9--9-
a -9--7--9--9--9--10--9-----9--7--9--9--9--7--9--9-
e -7--5--7--7--7--8---7-----7--5--7--7--7--5--7--7-

Рифф 2:

d -9-9-9-9-7-7-7-7-9---7---5-
a -9-9-9-9-7-7-7-7-9---7---5-
e -7-7-7-7-5-5-5-5-7---5---3-

Вступление (x2):

   Am                  Em                  B                   G
e -0-----0-0-0-----0-0-0-----0-0-0-----0-0----------------------------------------
b -1-----1-1-1-----1-1-0-----0-0-0-----0-0-4-----4-4-4-----4-4-3-----3-3-3-----3-3
g -2-----2-2-2-----2-2-0-----0-0-0-----0-0-4-----4-4-4-----4-4-4-----4-4-4-----4-4
d -----------------------------------------4-----4-4-4-----4-4-5-----5-5-5-----5-5
a --------------------------------------------------------------------------------
e --------------------------------------------------------------------------------

Рифф, исполняемый на второй гитаре поверх второго проигрыша 
вступления (x16):

e -----3----
b -3-3-4-4-

Вся песня исполняется на Риффе 1, после каждого куплета 
дважды играется Рифф 2.

Текст:

Мое имя - это Стас,
А фамилия - Барецкий.
Трех щенков недавно спас,
А потом я их зарезал.

Скажешь, что я жирный бес,
Устраним мы неполадки.
Я приеду за тобой,
Ты с семьей сыграешь в прятки.

Знаменитый шоумен,
Рву обыденности рамки.
Ведь недаром я тогда
В 90-х прыгнул в дамки.

В целом я на все готов
Ради матушки-России.
Свою бэху я возьму,
И залью всю керосином.

Силы мне не занимать,
Разгрызу любые банки.
Одной левой уложу,
Можешь жаловаться мамке.

Часть "Валенки":

Вариация на тему народной песни "Валенки" в си миноре. 
Мелодические партии органа можно исполнять голосом.

Аккорды:
Bm       F#7         Bm        Em
Bm       C#7    F#7   Bm        B

Играются 4 раза, последние два раза в дважды ускоренном темпе. 
 
 
Свернуть Распечатать

Аппликатуры аккордов

Аккорд AmАккорд EmАккорд BАккорд GАккорд BmАккорд F#7Аккорд C#7
IdlopuhIdlopuh
автор подбора аккордов
714 0 30.11.2021

Видео