Bachman Turner Overdrive - Taking Care Of Business, аккорды

Прокрутка
Тональность
Шрифт
100
SUBJECT: BTAB: TAKIN' CARE OF BUSINNESS
ARTIST: BACHMAN TURNER OVRDRIVE
FROM: CYBERBASSIST@HOTMAIL.COM

MAIN RIFF:

    C#                 Bb                  F
G |---------------------------------------------------------------------------|
D |---------------------------------------------------------------------------|
A |-3-3----------------1-1------------------------------------3-3-------------|
E |------5--3-3h5-3---------3--1-1h3-1----1-1----------------------5--3-3h5-3-|
B |--------------------------------------------3--1-1H3-1---------------------|

BRIDGE

G |--------------------------------------------------------------------|
D |--------------------------------------------------------------------|
A |--------------------------------------------------------------------|
E |------1-1-1------4-4--6-6-6-----------------------------------------|
B |-1-1----------------------------------------------------------------|

Listen to the song for perfect timing.
Any correction? Comments? email me at: cyberbassist@hotmail.com

enjoy!
 
 

Видео