Запрещают песни Цоя, Агата Кристи, Наутилус Помпилиус, Зиверт
Отвечаем в отдельной теме

Beatles - I've Just Seen Face (intro), аккорды

Прокрутка
Тональность
Шрифт
100
e|-----------2---2---2-----5---5---5------9----9----9------14----14----14----| 
B|---------------------------------------------------------------------------| 
G|---------2---2---2-----6---6---6-----11---11---11-----14----14----14-------| 
D|---------------------------------------------------------------------------| 
A|---------------------------------------------------------------------------| 
E|5---4---2------------------------------------------------------------------| 
 
e|---10---10---10----12--12--12----14--14--14--14--14--14-----12--12--12-----| 
B|---------------------------------------------------------------------------| 
G|-11---11---11----12--12--12----14--14--14--14--14--14-----13--13--13-------| 
D|---------------------------------------------------------------------------| 
A|---------------------------------------------------------------------------| 
E|---------------------------------------------------------------------------| 
 
e|---10--10--10--------------------------------------------------------------| 
B|---------------------------------------------------------------------------| 
G|-11--11--11----------------------------------------------------------------| 
D|---------------------------------------------------------------------------| 
A|---------------------------------------------------------------------------| 
E|---------------------------------------------------------------------------|
 
 

Видео