Beatles - Imagine, аккорды

Прокрутка
Тональность
Шрифт
100
Intro:
  C          Cmaj7 F               Cadd9
e|----------------|-----------------|----------------|-----------------|
B|------------0---|---------------0-|3---3---3---0---|---------------0-|
G|0---0---0---0---|2---2---2---2h3--|0---0---0---0---|2---2---2---2h3--|
D|2---2---2---2---|3---3---3--------|2---2---2---2---|3---3---3--------|
A|--3---3---3---3-|-----------------|--3---3---3---3-|-----------------|
E|----------------|--1---1---1------|----------------|--1---1---1------|

Verse:
  Cadd9      Cmaj7 F               Cadd9
e|----------------|-----------------|----------------|-----------------|
B|3---3---3---0---|---------------0-|3---3---3---0---|---------------0-|
G|0---0---0---0---|2---2---2---2h3--|0---0---0---0---|2---2---2---2h3--|
D|2---2---2---2---|3---3---3--------|2---2---2---2---|3---3---3--------|
A|--3---3---3---3-|-----------------|--3---3---3---3-|-----------------|
E|----------------|--1---1---1------|----------------|--1---1---1------|

C 	Cmaj7 	   F
Imagine there´s no heaven
C 	Cmaj7 	   F
It´s easy if you try
C 	Cmaj7 	F
No hell below us
C 	Cmaj7  F
Above us only sky

F 	Am      Dm7 F 
Imagine all the people
G      C/G   G7  
Living for today

C 	Cmaj7 	   F
Imagine there´s no countries
C 	Cmaj7 	  F
It isn´t hard to do
C 	Cmaj7 	  F
No greed or hunger
C 	Cmaj7 	   F
And no religion too

F 	Am      Dm7 F 
Imagine all the people
G      C/G   G7  
Living life in peace

C - Cmaj7 - E - E7 
You may say I´m a dreamer
F 	G 	     C E7
But I´m not the only one
F 	G 	       C   E7
I hope someday you´ll join us
F 	G 		C   C
And the world will live as one

C 	Cmaj7 	   F
Imagine no possessions
C 	Cmaj7 	   F
I wonder if you can
C 	Cmaj7 	   F
Nothing to kill or die for
C 	Cmaj7 	   F
A brotherhood of man

F 	Am      Dm7 F 
Imagine all the people
G      C/G   G7  
Sharing all the world

C - Cmaj7 - E - E7 
You may say I´m a dreamer
F 	G 	     C  E7
But I´m not the only one
F 	G 	       C     E7
I hope someday you´ll join us
F 	G 		C    C
And the world will live as one
 
 

Видео