Запрещают песни Цоя, Агата Кристи, Наутилус Помпилиус, Зиверт
Отвечаем в отдельной теме

Beatles - In My Life, аккорды

Прокрутка
Тональность
Шрифт
100
VARIENT 1:

Main Riff: E----5-----0-4-
           B--2---2-3-----
           G--2-----------

      A      E   F#m     F#m
There are places I'll remember  
    E (E7)    D      Dm       A
All my life though some have changed
      A      E   F#m     F#m
Some for ever not for better
    E (E7)    D      Dm       A
Some have gone, and some remain.

Chorus:
          F#m               Bm
All these places have their moments
     G                     A
With lovers and friends, I still can recall
         F#m               B
Some are dead and some are living
   D  Dm         A
In my life, I've loved them all

Main Riff: E----5-----0-4-
           B--2---2-3-----
           G--2-----------

      A      E   F#m     F#m
But of all these friends and lovers
    E (E7)    D      Dm       A
There is no one compared with you
      A      E   F#m     F#m
And these memories lose their meaning
    E (E7)    D      Dm       A
When I think of love as something new

          F#m               Bm
Thought I know I'll never lose affection
     G                     A
For people and things that went before
          F#m               B
I know I'll often stop and think about them
   D  Dm         A
In my life I'll love you more
   D  Dm         A
In my life I'll love you more

Main Riff: E----5-----0-4-
           B--2---2-3-----
           G--2-----------

Dm(V)
                             E7       A
Last Riff: E----5-----0-4----4--2--4--5
           B--2---2-3--------3--------5
           G--2--------------4--------6
           D--------------------------7

_________________________________
VARIENT 2:

e|-------5-------------------4---------5-------------------4-|
B|--2---------2----3----5---------2---------2----3----5------|
G|-----------------------------------------------------------|
D|-----------------------------------------------------------|
A|-----------------------------------------------------------|
E|-----------------------------------------------------------|            
   
    Then the ending:
e|--------5------------------4--------4----2----4---5--------|
B|---2--------2----3----5------------------------------------|
G|-----------------------------------------------------------|
D|-----------------------------------------------------------|
A|-----------------------------------------------------------|
E|-----------------------------------------------------------|

__________________________________
VARIENT 3:

Tab By Roi Ben Menachem, Israel

Start:
e---5-------4-0-0-0------
B-2---2-3-5---0-0-0------|
G-------------1-1-1------|
D-------------2-2-2------|
A-0---0-------2-2-2------|
E-----------0-0-0-0------/

End:
e---5-------4-4-2-4-5---
B-2---2-3-5-------------|
G-----------------------|
D-----------------------|
A-0---0-------------0---|
E-----------0-0-0-0-----/

________________________________
VARIENT 4:

Intro:
     A          E
|-----5-------------|--------|
|----------------9--|-----/--|
|--6-----6h7--9-----|--.-/---|
|-------------------|---/-.--|
|-------------------|--/-----|
|-------------------|--------|

       A     E7   F#m    A7       D   Dm      A 
There are places I'll remember, all my life, though some have changed
          E7      F#m   A7          D  Dm   A 
Some forever, not for better, some have gone and some remain.
           F#m              Bm            G                    A 
All these places had their moments, with lovers and friends, I still can recal.
        F#m              B          D            A
Some are dead and some are living.  In my life I've loved them all.

     A          E
|-----5-------------|--------|
|----------------9--|-----/--|
|--6-----6h7--9-----|--.-/---|
|-------------------|---/-.--|
|-------------------|--/-----|
|-------------------|--------|

Electric piano solo:
|------------9-----12p10--12----------------------9p7--9---10--12--15--|
|-----10h12----10-------------12-----12---7h9/10-----------------------|
|---------------------------------9------------------------------------|
|----------------------------------------------------------------------|
|--0-------------------------------------------------------------------|
|----------------------------------------------------------------------|

|-14-12-14----14----14----13p12--13-------12-10-12-9-12----12----12p10--12-9-----|
|----------15----14----12-----------15-12---------------12----10-------------12--|
|--------------------------------------------------------------------------------|
|--------------------------------------------------------------------------------|
|--------------------------------------------------------------------------------|
|--------------------------------------------------------------------------------|

     A          E
|-----5-------------|--------|
|----------------9--|-----/--|
|--6-----6h7--9-----|--.-/---|
|-------------------|---/-.--|
|-------------------|--/-----|
|-------------------|--------|

|--12--9h10h12--9-------------------------------|
|-----------------10---9---10p9p7---------------|
|--------------------9-------------9p7p6--------|
|------------------------------------------9p7--|
|-----------------------------------------------|
|-----------------------------------------------|

Outro:
  E7         A
|------------5--|
|--9--7-9----5--|
|--7---------6--|
|--9---------7--|
|--7------------|
|---------------|

Комментарий автора:

Chords: (Varient 1)
A   x 0 2 2 2 0
F#m 2 4 4 2 2 2  (Bar across 2nd fret)
Bm  x x 4 4 3 2
Dm  x x 0 2 3 1
G   3 2 0 0 3 3
__________________

Chords: (Varient 4)
A - 566755
E7 - 020100
F#m - 244222
A7 - 575655
D - X57775
Dm - X57765
Bm - X24432
G - 355433
B - X24442
 
 

Видео