Зачем удалили Цоя?
Отвечаем в отдельной теме

Beatles - While My Guitar Gently Weeps Acoustic, аккорды

Прокрутка
Тональность
Шрифт
100
Intro:
  1   2   3   4   1   2   3   4   1   2   3   4   1
e---6---6---------6-----6---6-----------------6-5H6P5-
B---8-----8-------8-8---8-----8---8---8-8-----8-------
G---0-0-----0---0-----0---0-----0---0-----0---0-------
D-0-0---------------------------------------0-0-------
A-------------8---------7---------6-------------------
E-----------------------------------------------------

 2   3   4   1   2
---5---------6-----6-
-8-6-6---8-----8---8-
---7---7---0-----0-0-
---0-----0---------0-
---------------------
---------------------

Verses:
 I look at. .all see.. love. . . sleeping. . while .
 I look at. .world . . notice. . turning . . while .
 I look from.wings . . play. . . staging . . while .
 1   2   3   4   1   2   3   4   1   2   3   4   1
---6---6---------6-----6---6-----------------6-5H6P5-
---8-----8-------8-8---8-----8---8---8-8-----8-------
---0-0-----0---0-----0---0-----0---0-----0---0-------
-0-0---------------------------------------0-0-------
-------------8---------7---------6-------------------
-----------------------------------------------------

 guitar. .weeps
 guitar. .weeps
 guitar. .weeps
   2   3   4   1   2   3   4
---5---------6-----6-5---5-5-
-8-6-6---8-----8---8-7-7-----
---7---7---0-----0-0---------
---0-----0---------0-0-------
-----------------------------
-----------------------------

 I look at. .floor. . .see. . . .sweeping. . still . gui...
 With . . mistake . . .surely . .learning. . still . gui...
 As I'm . . .here . . .nothing. .aging . . . still . gui...
 1   2   3   4   1   2   3   4   1   2   3   4   1   2
---6---6---------6-----6---6-----------------6-5H6P5---
-7-8-----8-------8-8---8-----8---8---8-8-----8-------8-
---0-0-----0---0-----0---0-----0---0-----0---0---------
-0-0---------------------------------------0-0---------
-------------8---------7---------6---------------------
-------------------------------------------------------

Chords:
 Dm         Bb    D                              -6-
...tar gently weeps     after final verse play   -8-
 Dm         Bb    D                              -0-
...tar gently weeps     the following as a chord -0-
 Dm         Bb    D                              -X-
...tar gently weeps     finishing bar then play  -X-
 Dm         Bb    D                              -X-
                      ending      

Ending:
1   2   3   4   1   2   3   4   1   2   3
----6---------6-----------------6-5H6P5---
----8---------8---------8-------8-------8-
--0---0-----0---0-----0---0-----0---------
------------------------------0-0---------
8-------8-7-------7-6-------6-------------
------------------------------------------

4   1   2   3   4   1   2   3   4   1   2
5-----6-5---5-----6-5---5-----6----6-----6
6-6---8---8-6-6---8---8-6-6---8------8---8  or Gm
7---7-0-----7---7-0-----7---7-0--0-----0-0
0-----0-----0-----0-----0-----0----------0
------------------------------------------
------------------------------------------

Chords:
Em            Bm  Em     Bm
 I don't know why nobody told you
Dm                  Am Dm
 How to unfold your love
Em            Bm  Em         Bm
 I don't know how someone controlled you
Dm                    Am Dm
 They bought and sold you.

Em            Bm  Em         Bm
 I don't know how you were diverted
Dm                  Am Dm
 You were perverted too
Em            Bm  Em         Bm
 I don't know how you were inverted
Dm              Am Dm
 No one alerted you.
 
 

Видео