Зачем удалили Цоя?
Отвечаем в отдельной теме

Beatles - I Want You (tab), аккорды

Прокрутка
Тональность
Шрифт
100
 Play these 5 measures over and over again:
 
 E--1---------1---------1---------|
 B-|---------3-----3------|--------3-----3------|--------3-----3------|
 G-|.-----2-----------2---0-----2---|-----1-----------1---|
 D-|.--0--------2---------|--3------------------|--2------------------|
 A-------------------------3--2---|
 E--------------------------------|
                                                                               
 
                                                                               
 
 E--1---------1---------|
 B-|---------3-----3------|--------2-----2------|
 G-|------1-----------1---------2--.|
 D--------0------3--2--.|
 A-|---1-----------3------|--0------------------|
 E----------------------|
                                                                               
 
                                                                               
 
 To end the song, replace the last measure with this:
 
 E-1---5---||
 B-|--------2------6---||
 G-----6---||
 D---------||
 A-|--0----------------||
 E---------||