Зачем удалили Цоя?
Отвечаем в отдельной теме

Beatles - I Feel Fine, аккорды

Прокрутка
Тональность
Шрифт
100
Main Riff: (repeat as needed)
    D                                   C
e|---------------------------------------------------------------------
B|---------------------------------------------------------------------
G|----------------------12--11------11--------------------10--9------9-
D|------12--12--10--------------14---------10--10--8-------------12----
A|----------12------12-------------------------10-----10---------------
E|--10----------------------------------8------------------------------

   G
e|-------------------------------------------------------
B|-------------------------------------------------------
G|-----------------5--4-----4-----------------5--4-----4-
D|-----5--5--3-----------7--------5--5--3-----------7----
A|--------5-----5--------------------5-----5-------------
E|--3--------------------------3-------------------------

Verse 1:
 G
Baby´s good to me   you know she´s happy as can be
              D
You know she said so
                  C              G
I´m in love with her and I feel fine

Verse 2:
 G
Baby says she´s mine you know she tells me all the time
              D
You know she said so
                  C              G
I´m in love with her and I feel fine

Middle:
 G      Bm        C               D7
I´m so glad that she´s my little girl
 G        Bm         Am             D7
She´s so glad she´s telling all the world

Verse 3:
          G 
That her baby buys her things   
G
You know he buys her diamond rings
             D7
You know she said so
                  C              G
I´m in love with her and I feel fine

Solo:
e|------------------------------------
B|-------6-------8-------6------------
G|--5/7-----7/9-----5/7-----75--3-----
D|----------------------------------5-
A|------------------------------------
E|------------------------------------

   D                                   C
e|---------------------------------------------------------------------
B|---------------------------------------------------------------------
G|----------------------12--11------11--------------------10--9------9-
D|------12--12--10--------------14---------10--10--8-------------12----
A|----------12------12-------------------------10-----10---------------
E|--10----------------------------------8------------------------------

   G
e|-------------------------------------------------------
B|-------------------------------------------------------
G|-----------------5--4-----4-----------------5--4-----4-
D|-----5--5--3-----------7--------5--5--3-----------7----
A|--------5-----5--------------------5-----5-------------
E|--3--------------------------3-------------------------

 G
Baby says she´s mine you know she tells me all the time
              D
You know she said so
                  C              G
I´m in love with her and I feel fine

 G      Bm        C               D7
I´m so glad that she´s my little girl
 G        Bm         Am             D7
She´s so glad she´s telling all the world

          G 
That her baby buys her things   
G
You know he buys her diamond rings
             D7
You know she said so
 D7                C              G
She´s in love with me and I feel fine
 D7                C              G
She´s in love with me and I feel fine
 
 

Видео