Beatsteaks - We Have To Figure It Out Tonight, аккорды

Прокрутка
Тональность
Шрифт
100
------------------------------------------------------------------------------
              WE HAVE TO FIGURE IT OUT TONIGHT - The Beatsteaks
------------------------------------------------------------------------------

By: Becky beck_e_b@greenday.ws

INTRO
e:---------------------------------------------------------------|
B:---------------------------------------------------------------|
G:---------------------------------------------------------------|
D:---------------------------------------------------------------|
A:---6-6-7-7-7-7-7-7-7-7-----------------------------------------|
E:-----------------------4-4-4-4---------------------------------|

CHORUS
e:---------------------------------------------------------------|
B:---------------------------------------------------------------|
G:---8-8-9-9-9-9-9-9-9-9-9-9-9-8-8/13----------------------------|
D:---8-8-9-9-9-9-9-9-9-9-9-9-9-8-8/13----------------------------|
A:---6-6-7-7-7-7-7-7-7-7-7-7-7-6-6/11----------------------------|
E:---------------------------------------------------------------|

BRIDGE (or whatever)
e:-----------------------------------------------------------------|
B:-----------------------------------------------------------------|
G:-----------------8-8-8-8-8-8-8-8-9-9-9-9-9-9-9-9-9-9-9-9-9-9-9-9-|
D:-6-6-6-6-6-6-6-6-8-8-8-8-8-8-8-8-9-9-9-9-9-9-9-9-9-9-9-9-9-9-9-9-|
A:-6-6-6-6-6-6-6-6-6-6-6-6-6-6-6-6-7-7-7-7-7-7-7-7-7-7-7-7-7-7-7-7-|
E:-4-4-4-4-4-4-4-4-------------------------------------------------|

Progression
INTRO x 4
CHORUS x 4
BRIDGE x 2
(squealing guitar feedback/noise)
CHORUS x 4
BRIDGE x 2

then play this little riff for a while...
e:---------------------------------------------------------------|
B:---------------------------------------------------------------|
G:---------------------------------------------------------------|
D:---------------------------------------------------------------|
A:--6-7-7-7-7-7-7-7-6-7-7-7-7-7-7-7------------------------------|
E:---------------------------------------------------------------|

CHORUS x 4

Break it up break it up,before you break down
i'm not happy, whatever that means
i can't let you go, i've built my world around you
what do you think about me and you?
yell at me, yell at me, c'mon say something
is the passion dead, or is it coming back?
i can't let you go, i've built my world around you
what do you think about me and you?
we have to figure it out, tonight
 
 

Видео