Beethoven Ludwig Van - Fur Elise, аккорды

Прокрутка
Тональность
Шрифт
100
Verse 1:
E--0-----0-----0-----------------------------0------------------0--|
G-----4-----4-----0--3--1-----------------1------------------0-----|
B--------------------------2-----------2------------------1--------|
D-----------------------------------0------------------2-----------|
A--------------------------------0------------------0--------------|
E-----------------------------0------------------0-----------------|

Verse 2:
E--7--6--7--6--7--2--5--3--0-----------------0-----------------0---|
G-----------------------------------------1-----------------0------|
B--------------------------------------2-----------------1---------|
D-----------------------------------0-----------------2------------|
A--------------------------------0-----------------0---------------|
E-----------------------------0-----------------0------------------|
 
 

Видео