Beethoven Ludwig Van - Fur Elise, аккорды

Прокрутка
Тональность
Шрифт
100
E---------------------------------------------------------------------------------------------------|
B---5----4----5----4----5----0----3----1----------------------------------0-----------------0----1--|
G-----------------------------------------------2---------------------2-------------------0---------|
D----------------------------------------------------------------2------------------2---------------|
A----------------------------------------------------------3----------------------------------------|
E---------------------------------------------------------------------------------------------------|

E--------------------------------------------------------------------------------------------------------|
B----------5----4----5-----4----0-----3----1-----------------------------0--------1----------0-----------|
G----0----------------------------------------------2------------------2------------------------------2--|
D---------------------------------------------------------------2----------------2-----------------------|
A----------------------------------------------------------3---------------------------------------------|
E--------------------------------------------------------------------------------------------------------|

E--------------------0------------1------0-------------------0---------------------------------------------|
B----0----1----3-------------------------------3-----------------------3------1---------3----1---0---------|
G---------------------------0------------------------------------------------------------------------------|
D------------------------------------------------------3------------------------------2--------------------|
A----------------------------------------------------------------------------------------------------------|
E-------------------------------------------------------------------------------------------------------0--|

E---------------------------------------------------------------------------------------------------|
B---5----4----5----4----5----0----3----1----------------------------------0-----------------0----1--|
G-----------------------------------------------2---------------------2-------------------0---------|
D----------------------------------------------------------------2------------------2---------------|
A----------------------------------------------------------3----------------------------------------|
E---------------------------------------------------------------------------------------------------|

E--------------------------------------------------------------------------------------------------------|
B----------5----4----5-----4----0-----3----1-----------------------------0--------1----------0-----------|
G----0----------------------------------------------2------------------2------------------------------2--|
D---------------------------------------------------------------2----------------2-----------------------|
A----------------------------------------------------------3---------------------------------------------|
E--------------------------------------------------------------------------------------------------------|
 
 

Видео