Beethoven Ludwig Van - Fur Elise, аккорды

Прокрутка
Тональность
Шрифт
100
e--12-11-12-11-12----10-8-5------------------------
B-----------------12--------5-9-10-12--5-10-12-13--
G--------------------------------------------------
D--------------------------------------------------
A--------------------------------------------------
E--------------------------------------------------

e--12-11-12-11-12----10-8-5------------------------
B-----------------12--------5-9-10-12-5-13-12-10---
G--------------------------------------------------
D--------------------------------------------------
A--------------------------------------------------
E--------------------------------------------------

e-----------10-12----13-12-10---12-10-8---10-8-7------
B--10-12-13-------10----------8---------5--------(9)--
G-----------------------------------------------------
D-----------------------------------------------------
A-----------------------------------------------------
e-----------------------------------------------------

e--12-11-12-11-12----10-8-5------------------------
B-----------------12--------5-9-10-12--5-10-12-13--
G--------------------------------------------------
D--------------------------------------------------
A--------------------------------------------------
E--------------------------------------------------

e--12-11-12-11-12----10-8-5------------------------
B-----------------12--------5-9-10-12-5-13-12-10---
G--------------------------------------------------
D--------------------------------------------------
A--------------------------------------------------
E---------------------------------------------(5)--
 
 

Видео