Beethoven Ludwig Van - Fur Elise, аккорды

Прокрутка
Тональность
Шрифт
100
E---12-11-12-11-12-------------------------------|
B------------------12-15-13------------------12v-|
G---------------------------14------------14-----|
D--------------------------------------14--------|
A---------------------------------12-15----------|
E------------------------------12----------------|

E--------------------|
B------------12-13v--|
G----------13--------|
D--------14----------|
A------11------------|
E---12---------------|

E---*12v---11-12-11-12--------------------------|
B------------------12-15-13------------------12-|
G---------------------------14------------14----|
D--------------------------------------14-------|
A---------------------------------12-15---------|
E------------------------------12---------------|

E---------------------|
B-----------13-12-----|
G-----------------14v-|
D--------14-----------|
A------11-------------|
E---12----------------|

E--------------12v---12h13p12---------12-----------------------12v-|
B-----12-13-15---------------15---15----15-13v---13-*15-13-12v-----|
G--14--------------------------------------------------------------|
D------------------------------------------------------------------|
A------------------------------------------------------------------|
E------------------------------------------------------------------|
 
 

Видео