Beethoven Ludwig Van - Ode To Joy, аккорды

Прокрутка
Тональность
Шрифт
100
E|-----------------------------------------|
B|0-0-1-3-3-1-0---------0-0----------------|
G|--------------2-0-0-2-----2-2------------|
D|-----------------------------------------|
A|-----------------------------------------|
E|-----------------------------------------|

E|-----------------------------------------|
B|0-0-1-3-3-1-0---------1------------------|
G|--------------2-0-0-2---2-0-0------------|
D|-----------------------------------------|
A|-----------------------------------------|
E|-----------------------------------------|

E|-----------------------------------------|
B|----0-----0-1-0------0-1-0------0--------|
G|2-2---0-2------2-0-2-------2-0-2--2-2----|
D|-----------------------------------------|
A|-----------------------------------------|
E|-----------------------------------------|

E|-----------------------------------------|
B|0-0-1-3-3-1-0---------0------------------|
G|--------------2-0-0-2---2-0-0------------|
D|-----------------------------------------|
A|-----------------------------------------|
E|-----------------------------------------|

Optional Ending: played slowly
E|-----------------------------------------|
B|------0----------------------------------|
G|2-0-2---0--------------------------------|
D|-----------------------------------------|
A|-----------------------------------------|
E|-----------------------------------------|
 
 

Видео