Белый Орел - Ностальгия, аккорды

Прокрутка
Тональность
Шрифт
100
Intro:
1|----------9-----------------------------------9-------------------
2|---9--8-9----10-----------9--7---------9--8-9----10----7------7---
3|-------------------8--7-8------9-8--6---------------------9-8---9-
4|------------------------------------------------------------------
5|------------------------------------------------------------------
6|------------------------------------------------------------------

1|----------9-----------------------------------9--7-------------------
2|---9--8-9----10-----------9--7---------9--8-9------10-9-7--7-----7---
3|-------------------8--7-8------9-8--6------------------------9-8---6-
4|---------------------------------------------------------------------
5|---------------------------------------------------------------------
6|---------------------------------------------------------------------

       Dbm                F#m 
Под мелодию метели и под зимний вьюги вальс,
        G#                        Dbm     G#
две снежинки к нам летели, молча падая на нас
     Dbm                    F#m                
и уснув в своей печали и забыв про холода,
         A                   Ab        Ab *
нас с тобой не замечая, исчезали навсегда. 

        Dbm                  F#m
Ностальгия постучала в мои двери,
       A                 Ab  
в эту зимнюю загадочную ночь.
     D#m                  F#m
Никому уже на свете я не верю.
        Ab                   Dbm  
Только ты одна сумеешь мне помочь.

       Dbm                F#m      
Как наверное когда-то в белоснежной тишине, 
        G#                      Dbm           G# 
зимней песней снегопада, все исчезнет как во сне.
        Dbm                F#m
Только эти две снежинки, одиноко и любя, 
        A                         Ab     Ab *
будут спать как на картинке на ладони у тебя.

        Dm                   Gm
Ностальгия постучала в мои двери 
       A#                A
в эту зимнюю загадочную ночь 
     Dm                   Gm
никому уже на свете я не верю
       A                   Dm
только ты одна сумеешь мне помочь

Комментарий автора:

Аккорды песни:
    Dbm	F#m  Ab  A   Ab *   Dm  Gm  A#  
1|---4---2---4---5---8------5---3---6---
2|---5---2---4---5---4------6---3---6---
3|---6---2---5---6---5------7---3---7---
4|---6---4---6---7---4------7---5---8---
5|---4---4---6---7---6------5---5---8---
6|---4---2---4---5---4------5---3---6---
 
 

Видео