Запрещают песни Цоя, Агата Кристи, Наутилус Помпилиус, Зиверт
Отвечаем в отдельной теме

Би-2 - Феллини, аккорды

Прокрутка
Тональность
Шрифт
100
Рифф 1: (Гитара 1)

1-й вариант - оригинальный:
5|-5-5-5/-5-|-5-5-5/-5-|-5-5-5/---|----------|
6|----------|----------|--------5-|-5-5-5/-0-|

2-й вариант - концертный:
5|-0-5-5-5/-|-0-5-5-5/-|-0-5-5-5/-|----------|
6|----------|----------|----------|-0-5-5-5/-|

Рифф 1
В одном из не снятых фильмов Фредерика Феллини
На тоненькой льдине в бокале мартини

Соло 1: (Гитара 2)
        x3
1|---------|-5-5-5---|
2|-6---6-5-|-------5-|
3|---7-----|---------|

Рифф 1
Герой на героине, Героиня на героине,
И двойная сплошная пролегла между ними.

Рифф 1
Между ними, секунду назад было жарко,
А теперь между ними лежат снега Килиманджаро.
Патроны в магазине, глазами на визине,
И отравленный воздух глотают так жадно.

Припев: x2
4|-7-|
5|-5-|
 Зря...

Рифф 2: (Гитара1)
4|-7-7-7-7-7-7-7-7-7-7-7-7---------|
5|-5-5-5-5-5-5-5-5-5-5-5-5-7-7-7-7-|
6|-------------------------5-5-5-5-|

Рифф 2
Зря ты думаешь о смерти,
Я хочу найти письмо в пустом конверте

Соло 2: (Гитара 2)
1|---------------------------------------|
2|---------------------------------------|
3|----7-7-7-77/9-9-9-99/10-10-10-1010/14-|
И прочесть                            тебе

Соло 3: (Гитара 2)
1|-5-------|-5-5h6-5-|
2|-----5---|---------| x4
3|---7-----|---------|

Рифф 3: (Гитара 1)
5|-5-5-5/-5-|-5-5-5/---|----------|--------5-| x4
6|----------|--------5-|-5-5-5/-5-|-5-5-5/---|

(Соло 3 играется под Рифф 3)

Гитара 3:
Зажимаем на 5-м ладу баре и играем по всей песне:
  Dm      Dm/C    D9+5    A 
1|-5-------5-------8-------5-|
2|-6-------6-------5-------5-|
3|-7-------7-------7-------6-|
4|-7-------7-------7-------7-|
5|-5-------5-------5-------7-|
6|-5-------8-------6-------5-|
 
 

Видео