Запрещают песни Цоя, Агата Кристи, Наутилус Помпилиус, Зиверт
Отвечаем в отдельной теме

Би-2 - Никто не придет, аккорды

Прокрутка
Тональность
Шрифт
100
Проигрыш:
1) x2 
E|-------------------------------------------| 
B|-------------------------------------------|
G|------------------12------------------11-7-|
D|--7-7-7-7-10-7-10-------7-7-7-7-10-7-------|
A|-------------------------------------------|
E|-------------------------------------------|

--------------------------------------------|
--------------------------------------------|
--------------------12/14-14-14-12-11-9-----|
---7-7-7-7-10-7-10--------------------------|
--------------------------------------------|
--------------------------------------------|

2) x2 
E|------------------------------------------------------|
B|---------8------5-6-5-3-------8-----10-12-13-12-13-15-|
G|------5-------5---------5---5-----5-------------------|
D|---7--------7-------------7-----7---------------------|
A|------------------------------------------------------|
E|------------------------------------------------------|

Am
Я забыл с чем рифмуется "жди"
Am 
Но у времени много слов
 G
Я увидел как впереди
 E
Точит косу старуха-любовь
 Am
Снова краски меняет страх
 Am 
На плетень моих белых стен
 G
С темной ночи и до утра
 E
Черной женщины падает тень

Проигрыш:
3)
E|----------------------------------------------------|
B|----------------------------------------------------|
G|----------------------------------------------------|
D|----------------------------------------------------|
A|--22222222-5-99999999-1010101010-99-5-777777777-5---|
E|----------------------------------------------------|

----------------------------------------------------|
----------------------------------------------------|
----------------------------------------------------|
----------------------------------------------------|
--22222222-5-99999999-10101010-121212-1010-99-------|
----------------------------------------------------|

Припев:
          E            Am
       ...Никто не придет
     
E|--0-----0-----0-|--3----3-----3-|---------------|
B|----1-----1-----|----1----1-----|-0----0----3---|
G|------2-----2---|------0----0---|---1----1------|
D|--   4 раза   --|--- 2 раза  ---|-----2----2----|
A|----------------|---------------|--- 2 раза  ---|
E|----------------|---------------|---------------|
                                      ...Никто не придет

E|------------------------------------------------|
B|------------------------------------------------|
G|--7-5-4-5---7-5-4-2---5-4-2-4---7-5-4-5---------|
D|------------------------------------------------|
A|------------------------------------------------|
E|------------------------------------------------|

Am
Я накапливал звуки и сны
Am
Называл это "белый джаз"
 G
Все ушло с ее легкой руки
 E
В черных клавиш собачий вальс
Am
Я писал о тебе белый стих
Am
И вмещал весь словарный запас
 G
В танец дикий твоих чернил
 E
То что делало слабыми нас

Проигрыш:
4)
E|------------------------------------------------|
B|------------------------------------------------|
G|--/12--12-11-9--11-14-16------------------------|
D|------------------------------------------------|
A|---       4 раза        ------------------------|
E|------------------------------------------------|

E|------------------------------------------------|
B|------------------------------------------------|
G|--14-12-11-12---14-12-11-9---14-12-11-12--------|
D|------------------------------------------------|
A|------------------------------------------------|
E|------------------------------------------------|

Припев:
          E            Am
       ...Никто не придет
     
E|--0-----0-----0-|--3----3-----3-|---------------|
B|----1-----1-----|----1----1-----|-0----0----3---|
G|------2-----2---|------0----0---|---1----1------|
D|--   4 раза   --|--- 2 раза  ---|-----2----2----|
A|----------------|---------------|--- 2 раза  ---|
E|----------------|---------------|---------------|
                                      ...Никто не придет

E|------------------------------------------------|
B|------------------------------------------------|
G|--7-5-4-5---7-5-4-2---5-4-2-4---7-5-4-5---------|
D|------------------------------------------------|
A|------------------------------------------------|
E|------------------------------------------------|

Проигрыш:
1) x2 
E|-------------------------------------------| 
B|-------------------------------------------|
G|------------------12------------------11-7-|
D|--7-7-7-7-10-7-10-------7-7-7-7-10-7-------|
A|-------------------------------------------|
E|-------------------------------------------|

--------------------------------------------|
--------------------------------------------|
--------------------12/14-14-14-12-11-9-----|
---7-7-7-7-10-7-10--------------------------|
--------------------------------------------|
--------------------------------------------|
 
 

Видео