Запрещают песни Цоя, Агата Кристи, Наутилус Помпилиус, Зиверт
Отвечаем в отдельной теме

Би-2 - Серебро, аккорды

Прокрутка
Тональность
Шрифт
100
	 Am       F        Dm       E  	        F (пальцы)
  --0---|------0-|--------|--1-1-1-|0-------|	|--------|
  ----3-|1---1---|--------|----3---|--3-1-0-|	|--------|
  2-----|--2-----|2-------|----2---|--------|	|3-------|
  ------|--2-----|--3-2-3-|0-------|2-------|	|--4-2-4-|
  ------|0-------|--------|--------|--------|	|--------|
  ------|--------|1-------|--------|--------|	|1-------|

	 Am       F        Dm       E  
	|------0-|--------|--1-1-1-|0-------|
	|1---1---|--------|----3---|--3-1-0-|
	|--2-----|2-------|----2---|--------|
	|--2-----|--3-2-3-|0-------|2-------|
	|0-------|--------|--------|--------|
	|--------|1-------|--------|--------|

	 Am       F        Dm       E  	        F (пальцы)
	|--------|--------|--1-1-1-|0-------|	|--------|
	|1-1-1-1-|1-------|----3---|--0-3-1-|	|2-------|
	|----2---|--2-----|----2---|--0-----|	|--3-----|
	|----2---|----3-2-|0-------|2-------|	|----4-3-|
	|0-------|--------|--------|--------|	|--------|
	|--------|1-------|--------|--------|	|1-------|

	 Am       F        Dm       E        Am       F    
	|--0-----|--------|--1-1-1-|--------|--0-0-0-|--------|--1-
	|----1-1-|--1-1-1-|--3-3-3-|--------|--1-1-1-|--1-1-1-|--3-
	|----2-2-|--2-2-2-|--2-2-2-|--------|--2-2-2-|--2-2-2-|--2-
	|--------|--3-3-3-|0-------|--------|--------|--3-3-3-|0---
	|0-------|--------|--------|--------|0-------|--------|----
	|--------|1-------|--------|0-------|--------|1-------|----
 
 

Видео