Запрещают песни Цоя, Агата Кристи, Наутилус Помпилиус, Зиверт
Отвечаем в отдельной теме

Би-2 - Сердце на волоске, аккорды

Прокрутка
Тональность
Шрифт
100
Вступление:
   Am               F
G|--------------5-7----|  
D|-5-7-5-7-5-7------7--|x2 

Am
Холодный город раставил сети
F
Из песен о любви и смерти
Am
И до последнего куплета
F
Мы будем вместе

Am
Играет ночь свои капризы
F
И в лунном свете стонет призрак
Am
Ему так тесно в черном теле
F
На самом деле

	Am             F E
	Сердце на волоске
	Am             F E
	Бьется в истерике
	Am             F E
	Между теней легла
	Am           F E
	Только я радуга

Проигрыш в припеве:
   Am           F    E
G|----5---2-4------------|
D|-2----------5-3---(2)--|

Мост:
   Am               F
G|--------------5-7-8--8-8-8-8-7-5--| 
D|----7-5-7-7-----------------------| x4 

Am
По небу из стекла и клея
F
Плывет прозрачной лодки фея
Am
И весь секрет ее улыбки
F
В короткой памяти золотой рыбки

Am
Холодный город раставил сети
F
Из песен о любви и смерти
Am
Но не осталось больше слов
F
На зеркалах лишь пепел ангела

	Am             F E
	Сердце на волоске
	Am             F E
	Бьется в истерике
	Am             F E
	Между теней легла
	Am           F E
	Только я радуга

Проигрыш в припеве:
   Am           F    E
G|----5---2-4------------|
D|-2----------5-3---(2)--|

Проигрыш:
   Am           F             Am            F
A|---------------------------------------------| 
E|------5-4-3-2-1-----1-2-3-4-5-----5-4-3-2-1--| x2 

	Am             F E
	Сердце на волоске
	Am             F E
	Бьется в истерике
	Am             F E
	Между теней легла
	Am           F E
	Только я радуга

Проигрыш в припеве:
   Am           F    E
G|----5---2-4------------|
D|-2----------5-3---(2)--|

Кода = Мост:
   Am               F
G|--------------5-7-8--8-8-8-8-7-5--| 
D|----7-5-7-7-----------------------| x4 
 
 

Видео