Запрещают песни Цоя, Агата Кристи, Наутилус Помпилиус, Зиверт
Отвечаем в отдельной теме

Би-2 - Последний герой, аккорды

Прокрутка
Тональность
Шрифт
100
Основной рифф: 
   Em
e|--------------------------------------------|
B|-----5--5------5--5-------5--5--------5-----|
G|--------------------------------------------|
D|-2-2-------4-4-------5--5----------5-----5--|

   Am                                    
e|-----5--5------5--5-------5--5--------5-----|
B|--------------------------------------------|
G|-2-2-------4-4-------5--5----------5-----5--|

   Em
Я больше не играю сам своей душой,
  Am
Какая есть, кому-нибудь сгодится.
   Em
Но медь – не золото, и твой герой - 
  Am
Последний, кем бы ты могла гордиться.

Припев:
	              Em
	Остаться в живых, отчаянный псих
	     Am
	Не свой не чужой, последний герой

	Проигрыш в припеве:
	
	   Em
	B|-5-0-5--4-0-4--3-0-3---2-1-0--|
	
	   Am
	e|-5-0-5--4-0-4--3-0-3---2-1-0--|


Проигрыш: Em | Em F | Em | Em F

   Em
Все то немногое, на четное не ставь
  Am
Когда любовь и слезы не дороже хлеба.
   Em
И кажется что до земли добраться вплавь
  Am
Возможно тем, кто по воде уходит в небо. 

Припев:
	              Em
	Остаться в живых, отчаянный псих
	     Am
	Не свой не чужой, последний герой

	Проигрыш в припеве:
	
	   Em
	B|-5-0-5--4-0-4--3-0-3---2-1-0--|
	
	   Am
	e|-5-0-5--4-0-4--3-0-3---2-1-0--|
 
 

Видео