Запрещают песни Цоя, Агата Кристи, Наутилус Помпилиус, Зиверт
Отвечаем в отдельной теме

Би-2 - Последний герой, аккорды

Прокрутка
Тональность
Шрифт
100
Intro:
e|-------0--0--------0--0--------0--0-------------|
B|------------------------------------------------|
G|------------------------------------------------|
D|------------------------------------------------|
A|------------------------------------------------|
E|-0--0--------2--2--------3--3-----------3--5--3-|
 
   Em       Em/F# Em/G       Em Em/F# Em/G
 Я больше не играю   со   своей душой
   Am    Am/B   Am/C      Am  Am/B Am/C
 Какая есть    кому-нибудь сгодится
    Em        Em/F#   Em/G   Em Em/F# Em/G
 Но медь - не золото   и твой  герой
    Am         Am/B   Am/C   Am   Am/B Am/C
 Последний, кем бы ты   могла   гордиться

Chorus:
            Em Emmaj7 Em7       
   Остаться в живых              
     Em6    Em Emmaj7 Em7        
   Отчаянный псих
      Em6     Am Ammaj7 Am7      
   Не свой, не чужой              
     Am6    Am Ammaj7 Am7 Am6     
   Последний герой

 Bridge:
D|-2--2-----2-----2--3-----2--2-----2-----2--3--|
A|-2--2-----2-----2--3-----2--2-----2-----2--3--| x2
E|-0--0-----0-----0--1-----0--0-----0-----0--1--|

 Em        Em/F#   Em/G           Em Em/F# Em/G
   Все то немного  - е   на четное не ставь
    Am       Am/B Am/C       Am Am/B Am/C
 Когда любовь и слезы не   дороже хлеба
   Em       Em/F#   Em/G         Em Em/F# Em/G
 И кажется, что до   земли   добраться вплавь
    Am         Am/B   Am/C       Am Am/B Am/C
 Возможно тем, кто по   воде   уходит в небо

Chorus:
            Em Emmaj7 Em7       
   Остаться в живых              
     Em6    Em Emmaj7 Em7        
   Отчаянный псих
      Em6     Am Ammaj7 Am7      
   Не свой, не чужой              
     Am6    Am Ammaj7 Am7 Am6     
   Последний герой

 Bridge:
D|-2--2-----2-----2--3-----2--2-----2-----2--3--|
A|-2--2-----2-----2--3-----2--2-----2-----2--3--| x4
E|-0--0-----0-----0--1-----0--0-----0-----0--1--|

Am | Am/B | Am/C | Asus4 }x2

Chorus:
            Em Emmaj7 Em7       
   Остаться в живых              
     Em6    Em Emmaj7 Em7        
   Отчаянный псих
      Em6     Am Ammaj7 Am7      
   Не свой, не чужой              
     Am6    Am Ammaj7 Am7 Am6     
   Последний герой

            Em Emmaj7 Em7       
   Остаться в живых              
     Em6    Em Emmaj7 Em7        
   Отчаянный псих
      Em6     Am Ammaj7 Am7      
   Не свой, не чужой              
     Am6    Am Ammaj7 Am7 Am6     
   Последний герой

 Bridge:
D|-2--2-----2-----2--3-----2--2-----2-----2--3--|
A|-2--2-----2-----2--3-----2--2-----2-----2--3--| x2
E|-0--0-----0-----0--1-----0--0-----0-----0--1--|

Комментарий автора:

Emmaj7 = [022040]
Em7   = [022030]
Em6   = [022020]
Ammaj7 = [x02204]
Am7   = [x02203]
Am6   = [x02202]
 
 

Видео