Запрещают песни Цоя, Агата Кристи, Наутилус Помпилиус, Зиверт
Отвечаем в отдельной теме

Би-2 - Серебро, аккорды

Прокрутка
Тональность
Шрифт
100
Chords: Am F Dm E
E|--------0------------1-------1---1---1-----0-----------------|
B|-1----1-----------------------------------------3----1----0--|
G|----2-----2-----3--------------------------------------------|
D|-------------3-----------0-------0---------2----------2----0-|
A|--0----------------------------------------------2-----------|
E|-----------1-------------------------------------------------|

E|-----------------0-----------------1-------1---1---1-0-------|
B|---1-------1----------------------------------------------3--|
G|--------2-------------2-------3------------------------------|
D|---------------------------3-----------0-------0-----2-------|
A|----0------------------------------------------------------2-|
E|-----------------------1-------------------------------------|

Am | F | Dm | E
Я не вернусь
Am | F | Dm | E
Так говорил когда-то
Am | F | Dm | E
И туман глотал мои слова
Am | F | Dm | E
И превращал их в воду
Am | F | Dm | E
Я всё отдам за продолжение пути
Am | F | Dm | E
Оставлю позади
Am | F | Dm | E
Свою беспечную свободу

Припев:
Dm | E | Am | F
Не потерять бы в серебре
Dm | E | Am | F
Её одну
Dm | E | Am | F
Заветную

Solo:
B|------5-----6--6--6--5------------------5-----6--6--6--5-----|
G|-5-5--------------------7--5--4--4/5--5--------------------7-|
D|---------7---------------------------------7-----------------|

Am | F | Dm | E
Не по себе
Am | F | Dm | E
От этой тихой и чужой зимы
Am | F | Dm | E
С которой я на ты
Am | F | Dm | E
Нам не стерпеть друг друга
Am | F | Dm | E
И до войны
Am | F | Dm | E
Мне не добраться никогда
Am | F | Dm | E
Моя безумная звезда
Am | F | Dm | E
Ведет меня по кругу

Припев:
Dm | E | Am | F
Не потерять бы в серебре
Dm | E | Am | F
Её одну
Dm | E | Am | F
Заветную

Am | F | Dm | E
А в облаках
Am | F | Dm | E
Застыл луны неверный свет
Am | F | Dm | E
И в нем перемешались города и я
Am | F | Dm | E
Зову её несмело

Припев:
Dm | E | Am | F
Не потерять бы в серебре
Dm | E | Am | F
Её одну
Dm | E | Am | F
Заветную

Комментарий автора:

Перебор со 'скрипом':
1ая(бас), 2ая(бас), 3я(бас), затем 4-ую, 5-ую и 6-ую-вместе
Аккорды:
Ам берется как Gm, но на 5ом ладу
Dm берется как Bm, но тоже на 5ом и со средним пальцем на 4-ой
струне 6ого лада. F и Em играются 'в оригинале'
 
 

Видео