Billie Eilish - Your Power, аккорды

Прокрутка
Тональность
Шрифт
100
Fmaj7 Am Em  x4

Tabs 
  
 Fmaj7         Am  Em  Fmaj7       Am    Em        Fmaj7        Am   Em    Fmaj7          Am  Em
1:--6--5--3--1-0----3------6--5--3--1-0----------------6--5--3--1-0--3---------5-5-5--5-3--------
2:-------------------0------------------------------------------------0--------5-5-5--5-3-5---0--
3:---------------------------------------0-----2-4/5--------------------------------------5------
4:---------------------------------------2--3-5--------------------------------------------------
5:---------------------------------------2-------------------------------------------------------

Fmaj7      Am         Em
Try not to abuse your power
Fmaj7            Am     Em
I know we didn't choose to change
Fmaj7                 Am        Em
You might not want to lose your power
Fmaj7              Am       Em
But having it's so strange

Fmaj7                     Am             Em
She said you were a hero, you played the part
Fmaj7                               Am              Em
But you ruined her in a year, don't act like it was hard
Fmaj7
And you swear you didn't know (didn't know, didn't know)
          Am             Em
No wonder why you didn't ask
        Fmaj7
She was sleeping in your clothes (in your clothes)
              Am               Em
But now she's got to get to class
         Fmaj7
How dare you
              Am   Em
And how could you
                   Fmaj7
Will you only feel bad when they find out
                         Am   Em
If you could take it all back
Would you?
 
Fmaj7      Am         Em
Try not to abuse your power
Fmaj7            Am        Em
I know we didn't choose to change
Fmaj7                 Am        Em
You might not want to lose your power
Fmaj7              Am       Em
But having it's so strange
 
Fmaj7
I thought that I was special
Am          Em               Fmaj7
You made me feel like it was my fault
                    Am        Em 
You were the devil, lost your appeal
        Fmaj7
Does it keep you in control (in control)
           Am            Em
For you to keep her in a cage
        Fmaj7
And you swear you didn't know (didn't know)
             Am                   Em
You said you thought she was your age
          Fmaj7 
How dare you
              Am   Em
And how could you?
                   Fmaj7                                    Am7     Em
Will you only feel bad if it turns out, that they kill your contract 
Would you?
 
Fmaj7      Am         Em
Try not to abuse your power
Fmaj7            Am        Em
I know we didn't choose to change
Fmaj7                 Am        Em
You might not want to lose your power
Fmaj7           Am     Em
But power isn't pain

Tabs 
  
 Fmaj7         Am  Em  Fmaj7       Am    Em        Fmaj7        Am   Em    Fmaj7          Am  Em
1:--6--5--3--1-0----3------6--5--3--1-0----------------6--5--3--1-0--3---------5-5-5--5-3--------
2:-------------------0------------------------------------------------0--------5-5-5--5-3-5---0--
3:---------------------------------------0-----2-4/5--------------------------------------5------
4:---------------------------------------2--3-5--------------------------------------------------
5:---------------------------------------2-------------------------------------------------------
 
 
Свернуть Распечатать

Аппликатуры аккордов

Аккорд Fmaj7Аккорд AmАккорд EmАккорд Am7
JuanesJuanes
автор подбора аккордов
7,921 13 18.05.2021

Видео