Bishop Stephen - It Might Be You, аккорды

Прокрутка
Тональность
Шрифт
100
It might be you (intro)
tabbed by Christopher Ong-Hay

it's simple but nice and also easy hope u guys like it!

|---2---------------------|
|-------------------------|
|-----0-------------------|
|-------0----2---2h4----0-|
|-------------------------|
|-------------------------|

|-------------------------|
|---2---------------------|
|-----0-------------------|
|-------0----2---2h4----0-|
|-------------------------|
|-------------------------|

|-------------------------|
|---3---------------------|
|-----0-------------------|
|-------0----2---2h4----0-|
|-------------------------|
|-------------------------|

|---------------------------------|
|---------------------------------|
|-------0-------------------------|
|---------2-------0h2---2-------2-|
|-----------3--------------0h2----|
|---------------------------------|

repeat!

luy yah peeps!
 
 

Видео