Bishop Stephen - It Might Be You, аккорды

Прокрутка
Тональность
Шрифт
100
Song Title: It Might Be You
Artist:     Stephen Bishop

Tabbed By:  Bensson Julius Dela Cruz


INTRO:
e|-----------------7----7h9-----|
b|-------10---10-----10-----10--|
G|----------9----9--------------| ->3x
D|----7-------------------------|
A|------------------------------|
E|------------------------------|

e|-----------------------------------|
b|-------10---10--10/1210-------10--|
G|----------9------9/119---9h11-----|
D|----7------------------------------|
A|-----------------------------------|
E|-----------------------------------|

	repeat all 2x.....

e|---------0----------|---------0----------|
b|-------3-------3-3--|-------3-------3-3--|
G|-----0-------0------|-----0-------0------|
D|-----------4--------|-----------4--------|
A|--------------------|---2----------------|
E|---3----------------|--------------------|

e|---------0----------------------3---|
b|-------3-------3-3-5----0-------3---|
G|-----0-------0-------5----2-0---0---|
D|-----------4--------------------0---|
A|---3-------------5-5-5--0-0-0---2---|
E|--------------------------------3---|
 
 

Видео