Bitard671 - Милфа с авито, аккорды

Прокрутка
Тональность
Шрифт
100
Вступление:

e|-----1---------1---------------------------------------------------------------------
и|---------3--------3------------1---------1-------------------------------------------
g|---------2--------2----------------3---------3------------2------------2-------------
D|--0---------0--------0------------3---------3-----------------3------------3---------
A|-----------------------------1---------1----------1----------------------------------
E|--------------------------------------------------------3-------------3------------3-

e|-------------------------
и|-----1---------1---------
g|---------3---------3-----
D|---------3---------3-----
A|--1---------1----------1-
E|-------------------------

D5                      A#5
Твой поезд ушел, самолет улетел,
G5                       A#5
А ты все тешишь себя надеждами,
В 48 ищешь себе 
Состоятельного и успешного.

D5         Asus4   
Но сама себя спроси:
F/A#
"Зачем ему старая мразь?",
Когда куча сосок в 25 за деньги готовы 
Хоть собаке лизать.

Dm A#5 G5
Dm A#5 

Твой звездолет давно улетел
И лишь Ашот поможет тебе.
За прописку будет с тобой,
Ты станешь его любимой Зульфиёй.

А иначе тебе гнить одной
Старой, ненужной, убогой мандой
Так что не откажи ему:
Нормальному горному пацану.

Dm A#5 G5 A#5
Dm A#5 

Кульминация:
e|-----1--------------------------------------------------
и|-------------------1-----------------------------1------
g|---------2------------------------2---------------------  { x2
D|--0--------------------3--------------3---------------3-         
A|----------------1---------------------------1-----------
E|------------------------------3-------------------------

Комментарий автора:

Аппликатуры:
Dm (бас: 4 струна 3 лад; 2 и 3я заглушены)
D5: X X 7 7 5 X
A#5: X X 3 3 1 X (or X X X 9 9 6)
G5: X X X 5 5 3
Asus4: X X 7 7 7 X 
F/A#: X X X 7 8 6