Bitard671 - Твой Выпускной, аккорды

Прокрутка
Тональность
Шрифт
100
     E  E  E  E  E  E  E  E   
A||--------2-----------2-----|
E||-----3-----3-----3-----3--|
C||--0-----------0-----------|
G||--------------------------|

  E  E  E  E  E  E  E  E   
--------0-----------0-----|
-----3-----3-----3-----3--|
--2-----------2-----------|
--------------------------|

  E  E  E  E  E  E  E  E   
--------2-----------2-----|
-----3-----3-----3-----3--|
--4-----------4-----------|
--------------------------|

  E  E  E  E  E  E  E  E   
--------0-----------0-----|
-----3-----3-----3-----3--|
--2-----------2-----------|
--------------------------|

  E  E  E  E  E  E  E  E   
--------2-----------2-----|
-----3-----3-----3-----3--|
--0-----------0-----------|
--------------------------|

  E  E  E  E  E  E  E  E   
--------0-----------0-----|
-----3-----3-----3-----3--|
--2-----------2-----------|
--------------------------|

  E  E  E  E  E  E  E  E   
--------2-----------2-----|
-----3-----3-----3-----3--|
--4-----------4-----------|
--------------------------|

  E  E  E  E  E  E  E  E   
--------0-----------0-----|
-----3-----3-----3-----3--|
--2-----------2-----------|
--------------------------|

  E  E  Q    Q    Q     
-----------------------|
--L--------------------|
-----------------------|
-----------------------|

  E  E  E  E  E  E  E  E   
--------5-----------5-----|
-----3-----3-----3-----3--|
--0-----------0-----------|
--------------------------|

  E  E  E  E  E  E  E  E   
--------0-----------0-----|
-----3-----3-----3-----3--|
--2-----------2-----------|
--------------------------|

  E  E  E  E  E  E  E  E   
--------2-----------2-----|
-----3-----3-----3-----3--|
--4-----------4-----------|
--------------------------|

  E  E  E  E  E  E  E  E   
--------0-----------0-----|
-----3-----3-----3-----3--|
--2-----------2-----------|
--------------------------|

  E  E  E  E  E  E  E  E   
--------5-----------5-----|
-----3-----3-----3-----3--|
--0-----------0-----------|
--------------------------|

  E  E  E  E  E  E  E  E   
--------0-----------0-----|
-----3-----3-----3-----3--|
--2-----------2-----------|
--------------------------|

  E  E  E  E  E  E  E  E   
--------2-----------2-----|
-----3-----3-----3-----3--|
--4-----------4-----------|
--------------------------|

  E  E  E  E  E  E  E  E   
--------0-----------0-----|
-----3-----3-----3-----3--|
--2-----------2-----------|
--------------------------|

  Q    E  Q    E  Q     
----------5------------|
---------------3-------|
--4----L----------4----|
-----------------------|

  Q    E  Q    E  Q     
----------5------------|
---------------3-------|
--2----L----------2----|
-----------------------|

  Q    E  Q    E  Q     
----------5------------|
---------------3-------|
--0----L----------0----|
-----------------------|

  Q    E  Q    E  Q     
----------5------------|
---------------3-------|
--0----L----------0----|
-----------------------|

  Q    E  Q    E  Q     
----------5------------|
---------------3-------|
--4----L----------4----|
-----------------------|

  Q    E  Q    E  Q     
----------5------------|
---------------3-------|
--2----L----------2----|
-----------------------|

  Q    E  Q    E  Q     
----------5------------|
---------------3-------|
--0----L----------0----|
-----------------------|

  Q    E  Q    E  Q     
----------5------------|
---------------3--3----|
--0----L---------------|
-----------------------|

  E  E  E  E  E  E  E  E   
-----2--------2--------2--|
--------3--------3--------|
--0--------0--------0-----|
--------------------------|

  E  E  E  E  E  E  E  E   
--------0-----------0-----|
-----3-----3-----3-----3--|
--2-----------2-----------|
--------------------------|

  E  E  E  E  E  E  E  E   
--------2-----------2-----|
-----3-----3-----3-----3--|
--4-----------4-----------|
--------------------------|

  E  E  E  E  E  E  E  E   
--------0-----------0-----|
-----3-----3-----3-----3--|
--2-----------2-----------|
--------------------------|

  E  E  E  E  E  E  E  E   
--------2-----------2-----|
-----3-----3-----3-----3--|
--0-----------0-----------|
--------------------------|

  E  E  E  E  E  E  E  E   
--------0-----------0-----|
-----3-----3-----3-----3--|
--2-----------2-----------|
--------------------------|

  E  E  E  E  E  E  E  E   
--------2-----------2-----|
-----3-----3-----3-----3--|
--4-----------4-----------|
--------------------------|

  E  E  E  E  E  E  E  E   
--------0-----------0-----|
-----3-----3-----3-----3--|
--2-----------2-----------|
--------------------------|

  E  E  Q    Q    Q     
-----------------------|
--L--------------------|
-----------------------|
-----------------------|

  E  E  E  E  E  E  E  E   
--------5-----------5-----|
-----3-----3-----3-----3--|
--0-----------0-----------|
--------------------------|

  E  E  E  E  E  E  E  E   
--------0-----------0-----|
-----3-----3-----3-----3--|
--2-----------2-----------|
--------------------------|

  E  E  E  E  E  E  E  E   
--------2-----------2-----|
-----3-----3-----3-----3--|
--4-----------4-----------|
--------------------------|

  E  E  E  E  E  E  E  E   
--------0-----------0-----|
-----3-----3-----3-----3--|
--2-----------2-----------|
--------------------------|

  E  E  E  E  E  E  E  E   
--------5-----------5-----|
-----3-----3-----3-----3--|
--0-----------0-----------|
--------------------------|

  E  E  E  E  E  E  E  E   
--------0-----------0-----|
-----3-----3-----3-----3--|
--2-----------2-----------|
--------------------------|

  E  E  E  E  E  E  E  E   
--------2-----------2-----|
-----3-----3-----3-----3--|
--4-----------4-----------|
--------------------------|

  E  E  E  E  E  E  E  E   
--------0-----------0-----|
-----3-----3-----3-----3--|
--2-----------2-----------|
--------------------------|

  E  E  E  E  E  E  E  E   
--------5-----------5-----|
-----3-----3-----3-----3--|
--0-----------0-----------|
--------------------------|

  E  E  E  E  E  E  E  E   
--------0-----------0-----|
-----3-----3-----3-----3--|
--2-----------2-----------|
--------------------------|

  E  E  E  E  E  E  E  E   
--------2-----------2-----|
-----3-----3-----3-----3--|
--4-----------4-----------|
--------------------------|

  E  E  E  E  E  E  E  E   
--------0-----------0-----|
-----3-----3-----3-----3--|
--2-----------2-----------|
--------------------------|

  E  E  E  E  E  E  E  E   
--------5-----------5-----|
-----3-----3-----3-----3--|
--0-----------0-----------|
--------------------------|

  E  E  E  E  E  E  E  E   
--------0-----------0-----|
-----3-----3-----3-----3--|
--2-----------2-----------|
--------------------------|

  E  E  E  E  E  E  E  E   
--------2-----------2-----|
-----3-----3-----3-----3--|
--4-----------4-----------|
--------------------------|

  E  E  E  E  E  E  E  E     E  E  Q     
--------0-----------0-----|-------------|
-----3-----3-----3-----3--|--L----------|
--2-----------2-----------|-------------|
--------------------------|-------------|

  ^                  
  W                  
--5----------------||
--3----------------||
--4----------------||
--0----------------||

1. Сидишь один в праздничную ночь 
И ни кого нет рядом с тобой.
Девки танцуют с Ванькой Ерохой,
А ты один сидишь как лох 

Припев:
Это твой выпускной 
Когда училка из жалости танцует с тобой.
Это твой выпускной 
Когда даже конченный задрот тащит тянку с собой. 

2. Что же там на дваче? Как же он без меня? 
Может быть в политаче русофобия? 
Я бы их нагнул картинкой с медведем.
Продали свою страну за колу еретикам...

Припев:
Это твой выпускной 
Когда училка из жалости танцует с тобой.
Это твой выпускной 
Когда даже конченный задрот тащит тянку с собой. 

Комментарий автора:

Duration Legend
---------------
W - whole
H - half
Q - quarter
E - 8th
L - tied note
 
 

Видео