Bitard671 - Трудно быть олдфагом, аккорды

Прокрутка
Тональность
Шрифт
100
Вступление: C5 G5 G#5 }x2

e|-----------------------------------------------------------------
B|-----------------------------------------------------------------
G|-----------------------------------------------------------------
D|--------5--------------------------------------------------------
A|-3--3--------3-----------5--------------------6----------------6-
E|--------------------3--3--------3-------4--4-------4------4------

C5         G5     G#5 G5 G#5 
Трудно быть олдфагом,
C5             G5    G#5 G5 G#5
Среди школьников всратых,
С5          G5   G#5 G5 G#5
Среди додиков умных,
C5            G5    G#5 G5
Батеным х*ром озалупленных.

C5   F5       G#5
В моче моченые,
C5   F5       G#5
Прыщами окрапленные,
C5   F5       G#5
Циники мамкины,
C5   F5       G5#
Альфачи онлайновые.

e|-----------------------------------------------------------------
B|-----------------------------------------------------------------
G|-----------------------------------------------------------------
D|--------5--------------------------------------------------------
A|-3--3--------3-----------5--------------------6----------------6-
E|--------------------3--3--------3-------4--4-------4------4------

C5         G5     G#5 G5 G#5 
Трудно быть олдфагом,
C5         G5     G#5 G5 G#5 
Среди эликтки всратой,
C5         G5    G#5 G5 G#5 
Среди мамкиных альф
C5         G5     G#5 G5 G#5 
Эчико я хика - Go е**ться

C5   F5       G#5
В моче моченые,
C5   F5       G#5
Прыщами окрапленные,
C5   F5       G#5
Циники мамкины,
C5   F5       G5#
Альфачи онлайновые.
 
 

Видео