Bitard671 - Вали на сосач, аккорды

Прокрутка
Тональность
Шрифт
100
e|------------------------------------------------------
b|------------------------------------------------------
g|------------------------------------------------------  x2
D|---------5----3----2---------2-͜-3-͜-2---------2-͜-3-͜-2--
A|--3--3----3-----3-----3--3------------3--3------------
E|------------------------------------------------------

e|--------------------------------------------------------------
b|--------------------------------------------------------------
g|--------------------------------------------------------------
D|---------2-----3----5---------------2-͜-3-͜-2---------2-͜-3-͜-2--- x2
A|--0--0-----0-----0-----0----0--0-------------0--0-------------
E|--------------------------------------------------------------

F5                 E            A5
Вали на сосач - тебе здесь не рады.
Спрячься под шконкой, усни у параши.
Каждая буква в твоем предложении
Вызывает жалость и отвращение.

Вали на сосач - тебе здесь не рады.
Спрячься под шконкой, усни у параши.
Мне тебя жаль. А если честно - нет.
Вали на сосач и забери свой бред!

e|----------------------------------------------------------------
b|----------------------------------------------------------------
g|--------------------------------------------------------------2-
D|--------3------------3-------------2-------------2---------2----
A|-----3-----3-----3-----3------2------2-------2----2------0------
E|--1-------------1------------0-------------0--------------------
 
 

Видео