Bitard671 - Трудно быть олдфагом, аккорды

Прокрутка
Тональность
Шрифт
100
Вступление: B5 F#5 G5 }x2 
|----------------------------------------------------------------------
|----------------------------------------------------------------------
|----------------------------------------------------------------------
|------------4---------------------------------------------------------
|-----2--2--------2-----------4--------------------5----------------5--
|------------------------2--2--------2-------3--3-------3------3-------

B5         F#5    G5 F#5 G5 
Трудно быть олдфагом,
B5         F#5    G5 F#5 G5 
Среди школьников всратых,
B5         F#5    G5 F#5 G5 
Среди додиков умных,
B5         F#5    G5 F#5 G5 
Батеным х*ром озалупленных.

B5   Em      G5
В моче моченые,
B5   Em      G5
Прыщами окрапленные,
B5   Em      G5
Циники мамкины,
B5   Em      G5
Альфачи онлайновые.

Проигрыш:
B5 F#5 G5 }x2 
|----------------------------------------------------------------------
|----------------------------------------------------------------------
|----------------------------------------------------------------------
|------------4---------------------------------------------------------
|-----2--2--------2-----------4--------------------5----------------5--
|------------------------2--2--------2-------3--3-------3------3-------

B5         F#5    G5 F#5 G5 
Трудно быть олдфагом,
B5         F#5    G5 F#5 G5 
Среди элитки всратой,
B5         F#5    G5 F#5 G5 
Среди мамкиных альф
B5         F#5    G5 F#5 G5 
Эй, чика, я хика - Go ебаться

B5   Em      G5
В моче моченые,
B5   Em      G5
Прыщами окрапленные,
B5   Em      G5
Циники мамкины,
B5   Em      G5
Альфачи онлайновые.
 
 
Свернуть Распечатать

Видео