Bitard671 - Когда сестра дала, аккорды

Прокрутка
Тональность
Шрифт
100
C               Asus4
Когда сестра дала,
Em                  D
Сердцу захотелось петь.
C             Asus4
Среди зимы весна,
Em                    D
И начало вокруг зеленеть.

C               Asus4
Каждый день, словно праздник,
Em                  D
Когда она спит голышом.
C            Asus4
Если сестра дала,
Em                  D
Значит все идет путем.

        C                 Em                     D
e|----------------------------------------------------------
b|-------5-------------8----------------7------------7------
g|----------5-------------9----------------7------------7---
D|---------------------------------------------------------- }x2
A|---3---------3---7---------7------5--------5--5---------5-
E|----------------------------------------------------------

C            Asus4
Когда сестра дала,
Em                  D
В синем небе разошлись все тучи,
C       Asus4
Для меня она,
Em                  D
Как в дождь и снег солнечный лучик.

C          Asus4
И пускай общество
Em                  D
Не создано для таких отношений,
C               Asus4
Мы вдвоем против всех
Em           D
На этой планете.

e|--------------------------------------------------------
b|-------5-------------8----------------7----------7------
g|----------5-------------9----------------7----------7---
D|-------------------------------------------------------- }x2
A|---3---------3---7---------7------5--------5--5-------5-
E|--------------------------------------------------------

e|-----------------------------------------------------------
b|----------------------3---------------8-------------7------
g|-------5---------------------------------9-------------7---
D|----------5---------------5-------------------------------- }x2
A|---0----------0---3---------3----7-------7---5-----------5-
E|-----------------------------------------------------------

C             Asus4
Когда сестра дала,
Em                 D
Сердцу захотелось петь.
C           Asus4
Среди зимы весна,
Em                  D
И начало вокруг зеленеть.

C               Asus4
Каждый день, словно праздник,
Em                  D
Когда она спит голышом.
C           Asus4
Если сестра дала,
Em                  D
Значит все идет путем.

Outro: Am     
 
 
Свернуть Распечатать

Видео