Black Eyed Peas - Lets Get Retarded, аккорды

Прокрутка
Тональность
Шрифт
100
Intro & Chorus:
G|--------------------------------|
D|--------------------5-------4---|
A|2---2-4-5---5-----5---5---4---4-|
E|--2-------5---5-3-------2-------|
 
G|----4-6-7-----------------------|
D|--4-------7---------5-------4---|
A|2-----------5-----5---5---4---4-|
E|--------------5-3-------2-------|

Verses:
Same as the first two bars of the intro, looped,
with minor improvised variations.

Pre/Post Chorus:
G|--------------------------|
D|--------------------------|
A|2-------5-----------------|
E|----------------3-------2-|

G|--------------------------------|
D|----------------------------4---|
A|2-------5-----------------4---4-|
E|----------------3---3---2-------|

Bridge:
G|--------------------------------| x3------------------------|
D|----------------------------4---|---------------------------|
A|2---2-----------5---5-----4---4-|---------------------------|
E|--2---2-3-3-3-3---5---5-2-------| <--Ideally you would have-|
                                    low F to alternate with G
G|--------------------------------| But it works well like this-|
D|--------------------------------|-----------------------------|
A|--------------------------------|-----------------------------|
E|3-3-3-3-3-3-3-3-5-5-5-5-2-2-2-2-|-----------------------------|
 
 

Видео