Black Eyed Peas - Latin Girls, аккорды

Прокрутка
Тональность
Шрифт
100
Eb7 G#7 C#m
E|-----5------------4--------------4--------|
B|--8----7------------4---------5----5--2---|
G|--8------6-----5------5-------6---------1-|
D|--7--------7---4--------4-----6-----------|
A|--6------------6--------------4-----------|
E|---------------4--------------------------|

This Riff covers the
Chorus
Verse 1
Chorus 2

Verse 2

The riff covers verse 2 but i thought I should tab 
the little scales and fills that are played.
You play these little fills after will.i.am says 
"We could connect and act
humanly indulge in animal instincts so we could...
E|--------------5------------------4-------------------4-------|
B|---------------7------------------4--------------4h5--5--2---|
G|---------6h8----6-----------6h8----5---------4h6-----------1-|
D|-----6h7---------7------4h6---------4----4h6-----------------|
A|-6h9----------------4h6--------------------------------------|
E|-------------------------------------------------------------|

E|-9-9-9h11-11-11h14-14-14-11-|
B|----------------------------|
G|----------------------------|
D|----------------------------|
A|----------------------------|
E|----------------------------|

Bridge Part 1.

This is the part where Fergie is singing in spanish or latin 
or whatever it is.
Note i dont think this bit is 100% right.
F#m G# C#m C#m G#
E|-4-5-2--4-5-2-4-0-2-0--2--4--0-----2--4--0--0-2------------|
B|-------------------4-----------2-4-------------4--5-4--2-1-|
G|-----------------------------------------------------------|
D|-----------------------------------------------------------|
A|-----------------------------------------------------------|
E|-----------------------------------------------------------|

Bridge part 2.

the part of the song when the guy sings "Que pasa senorita"

The chords are F#m G# E
And the little classical guitar part is...
E|----4-5-7--7777--4-2-4-222-0-|
B|--5--------------------------|
G|-----------------------------|
D|-----------------------------|
A|-----------------------------|
E|-----------------------------|

Note: If their is notes right next to each other play them fast.
The guitar instrumental bit.
Follow the guitarra!
E|-------------------------------------------------------------|
B|-------------------------------------------------4444-5555x2-|
G|--------55-88-55--------55-88-55-----------------------------|
D|----44-----------44--66----------66---------6666-------------|
A|-66---------------------------------33-4444------------------|
E|-------------------------------------------------------------|

verse 3
chorus 3

The outro.
This is the part with the trumpet,
the piccalo and all of those type instruments.

The classical guitar at the end. 
Its kinda hard 2 hear so it might be wrong.
C#m Eb7 A G#7
E|-0---0-- --3---3-----5---4---4--|
B|---0---0----2---2----6----4---4-|
G|---------------------7----------|
D|---------------------7----------|
A|--------------------------------|
E|--------------------------------|
 
 

Видео