Black Eyed Peas - Bebot, аккорды

Прокрутка
Тональность
Шрифт
100
 Intro   'Philippino'
e|------1----------------1----1--3--1-3--1-----------|
B|---3----3-1--------1-3----3--------------3-1-3-----|
G|------------2-0-2----------------------------------|
D|---------------------------------------------------|
A|---------------------------------------------------|
E|---------------------------------------------------|

 Verse
e|------------------------------------------------------|
B|------------------------------------------------------|
G|------------------------------------------------------|
D|---0-0---0-0---0-0---0-0---0-0---0-0---0-0---00-0-----|
A|-------------0-----------0-----------0------------0---|
E|------------------------------------------------------|

 Chorus
e|-------------------------------------|
B|-------------------------------------|
G|---------------------------------0---|
D|---00-00-0-00-00-0-00-00-0-0---0-----|
A|-------------------------------------|
E|-----------------------------3-------|

 Effect
e|--------------------------|
B|--------------------------|
G|----------------7---7-----|
D|------------7-------7-----|
A|--------8-----------8-----|
E|---10---------------10----|
 
 

Видео