Black Eyed Peas - Don't Lie, аккорды

Прокрутка
Тональность
Шрифт
100
Chords:
E|-x-x-x-x-x-x-x-x-x-x-x-x-|
B|-9-9-9-9-9-9-7-7-7-7-7-7-|
G|-9-9-9-9-9-9-7-7-7-7-7-7-|
D|-9-9-9-9-9-9-7-7-7-7-7-7-|
A|-7-7-7-7-7-7-5-5-5-5-5-5-|
E|-------------------------|

Riff:
E|-----9-7-9-7-5-5-|
B|-----------------|
G|-----------------|
D|-----------------|
A|-----------------|
E|-----------------|

You can play the chords with the riff if you
have two guitarist,or you can play the
chords/riff below with one guitarist.

Chords/riff
E|-x-x-9-x-9-x-x-x-x-x-x-x-|
B|-9-9-9-9-9-9-7-7-7-7-7-7-|
G|-9-9-9-9-9-9-7-7-7-7-7-7-|
D|-9-9-9-9-9-9-7-7-7-7-7-7-|
A|-7-7-7-7-7-7-5-5-5-5-5-5-|
E|-------------------------|
 
 

Видео