Black Eyed Peas - My Humps, аккорды

Прокрутка
Тональность
Шрифт
100
E|---------------| |---------------| |------|
B|---------------| |3-----5---6---5| |----3-|
G|3-------3------| |---------------| |------|
D|3-------3------| |---------------| |------|
A|1-------1------| |---------------| |------|
E|---------------| |---------------| |------|
 
E|---------------| |--------------|
B|3-----5---6---5| |----3-------3-|
G|---------------| |------------3-|
D|---------------| |------------1-|
A|---------------| |--------------|
E|---------------| |--------------|

E|---------------| |--------------|
B|3-----5---6---5| |----3-------3-|
G|---------------| |------------3-|
D|---------------| |------------1-|
A|---------------| |--------------|
E|---------------| |--------------|

E|---------------| |------|
B|---------------| |------|
G|---------------| |------|
D|0-----2---3---2| |----0-|
A|---------------| |------|
E|---------------| |------|

E|---------------| |------|
B|3-----5---6---5| |----3-|
G|---------------| |------|
D|---------------| |------|
A|---------------| |------|
E|---------------| |------|

E|---------------| |------|
B|3-----5---6---5| |----3-|
G|---------------| |------|
D|---------------| |------|
A|---------------| |------|
E|---------------| |------|

E|---------------| |------|
B|---------------| |------|
G|---------------| |------|
D|0-----2---3---2| |----0-|
A|---------------| |------|
E|---------------| |------|

E|--------|
B|--------|
G|3-4-5-3-|
D|3-4-5-3-|
A|1-2-3-1-|
E|--------|

E|---------------| |------|
B|3-----5---6---5| |----3-|
G|---------------| |------|
D|---------------| |------|
A|---------------| |------|
E|---------------| |------|

E|--------|
B|--------|
G|3-4-5-3-|
D|3-4-5-3-|
A|1-2-3-1-|
E|--------|
 
 

Видео