Black Eyed Peas - Losing My Ground, аккорды

Прокрутка
Тональность
Шрифт
100
Intro:
e|--------6---------|--------6------|----------6-----|---------------------|
B|-8---8-8-----8----|-7---7-7----7--|-6---6-6----6---|-5----5-5-6-7--------|
G|---7----------7---|---7---------7-|---7----------7-|---7---7-------------|
D|------------------|---------------|----------------|---------------------|
A|------------------|---------------|----------------|---------------------|
E|------------------|---------------|----------------|---------------------|
(just REPEAT for verse and chorus)
 

GUITAR ADLIB:
          ~            ~
e|-3/5-5-5/6-6-6--|-6/8-8-8/10-10-10--|--108-8-8-6-6-|-10-8-6-5-3-------|
B|----------------|-------------------|-----------------|------------------|
G|----------------|-------------------|-----------------|------------------|
D|----------------|-------------------|-----------------|------------------|
A|----------------|-------------------|-----------------|------------------|
E|----------------|-------------------|-----------------|------------------|

2nd adlib:
e|-108-8-8/10-10-10--|--108-8-8-6-6--|--3/5-5-5-3-3--|-10-8-6-5-3----|
B|--------------------|------------------|-----------------|---------------|
G|--------------------|------------------|-----------------|---------------|
D|--------------------|------------------|-----------------|---------------|
A|--------------------|------------------|-----------------|---------------|
E|--------------------|------------------|-----------------|---------------|

3rd adlib:
e|-3--3--3--3--3----|-5--5--5--5--5----|-6--6--6--6--6---|--3----3---------|
B|---3--3--3--3--3--|---7--7--7--7--7--|---8--8--8--8----|---3----3--------|
G|--3--3--3--3--3---|--7--7--7--7--7---|--7--7--7--7--7--|-3--3----3-------|
D|------------------|------------------|-----------------|-----------------|
A|------------------|------------------|-----------------|-----------------|
E|------------------|------------------|-----------------|-----------------|
 
 

Видео