Black Eyed Peas - Anxiety (ft Papa Roach), аккорды

Прокрутка
Тональность
Шрифт
100
Intro/Breakdown:
E-------5---------3--------8--------3-----|
B------5---------1--------5--------1------|
G-----5---------2--------5--------2-------|
D--------------3-----------------3--------|
A--0-------------------0------------------|
E-----------------------------------------|

Verse:
E-----------------------------------|----------------------------------|
B-----------------------------------|-------------------5--------------|
G--------------------5--------------|----------------------------------|
D----7-----5--7--5--------7--5--7---|--7-------5--7--5------7--5--7----|
A----7------------------------------|--7-------------------------------|
E----5------------------------------|--5-------------------------------|

E-----------------------------------|----------------------------------|
B-----------------------------------|-------------------5--------------|
G--------------------5--------------|----------------------------------|
D----3-----5--7--5--------7--5--7---|--3-------5--7--5------7--5--7----|
A----3------------------------------|--3-------------------------------|
E----1------------------------------|--1-------------------------------| x2

Pre-Chorus:
E------------------|---------------------|
B------------------|---------------------|
G------------------|---------------------|
D----7--7----------|----7--7-------------|
A----7--7----------|----7--7-------------|
E----5--5----------|----5--5-------------|


E------------------|---------------------|
B------------------|---------------------|
G------------------|---------------------|
D----3--3----------|----3--3-------------|
A----3--3----------|----3--3-------------|
E----1--1----------|----1--1-------------| x2

GTR I:
E------------------|---------------------|
B------------------|---------------------|
G------------------|---------------------|
D----7--7----------|----7--7-------------|
A----7--7----------|----7--7-------------|
E----5--5----------|----5--5-------------| x2

GTR II:
E--------------------------------|--------------------------------|
B--------------------------------|--------------------------------|
G---------------------------9----|---------------------------9----|
D----7--7--10-9-7-9--7-9--7------|----7--7--10-9-7-9--7-9--7------|
A--------------------------------|--------------------------------|
E--------------------------------|--------------------------------| x2

Chorus:

GTR I:
E----------5-5-5-5-----|----------5-5-5-5--------|
B----------5-5-5-5-----|----------5-5-5-5--------|
G----------5-5-5-5-----|----------5-5-5-5--------|
D----7--7--------------|----7--7-----------------|
A----7--7--------------|----7--7-----------------|
E----5--5--------------|----5--5-----------------|

E------------------|---------------------|
B------------------|---------------------|
G------------------|---------------------|
D----3--3----------|----3--3-------------|
A----3--3----------|----3--3-------------|
E----1--1----------|----1--1-------------|

GTR II:
E--------------------------------|--------------------------------|
B--------------------------------|--------------------------------|
G---------------------------9----|---------------------------9----|
D----7--7--10-9-7-9--7-9--7------|----7--7--10-9-7-9--7-9--7------|
A--------------------------------|--------------------------------|
E--------------------------------|--------------------------------|

E-----------------------------|--------------------------------|
B-----------------------------|--------------------------------|
G-----------------------------|--------------------------------|
D-----------------------------|--------------------------------|
A----------3-0-2-3-2-0--------|---------3-3-0-2----------------|
E-----------------------------|--------------------------------|
 
 

Видео