Black Eyed Peas - The Way You Make Me Feel (bass), аккорды

Прокрутка
Тональность
Шрифт
100
Intro:
G|------|
D|------|
A|------|
E|-4-55-|
 
Then play this whole riff for the rest of the song:
G|------------------------------|
D|------6----6----------6----6--|
A|----6-----6-6-------6-----6-6-|
E|-4---------------4------------|

Continued:
E|------11-9---8----------------|
B|----9---------7-----7---------|
G|--7-------------7--7-7--7-----|
D|--------------------------5-4-|