Black Eyed Peas - Dont Phunk With My Heart, аккорды

Прокрутка
Тональность
Шрифт
100
Chorus:
E|-------------------------------------------|
B|-------------------------------------------|
G|-----------0--------------0--------0-------|
D|-2-0-2-0-2--------2-0-2-2---4-2------4-2---|
A|-------------2------------------2--------0-|
E|-------------------------------------------|

Don't you worry bout a thang baby...
E|----------------------------------------------------------|
B|----------------------------------------------------------|
G|----------------------------------------------------------|
D|------------------------------------------------and so on-|
A|---6666666444-9999999888----------------------------------|
E|----------------------------------------------------------|
Don't phunk with my heart...
E|-------------------------|
B|-------------------------|
G|-------------------------|
D|--2-2-2--5----2-2-2-2--5-|
A|-------------------------|
E|-------------------------|  
 
 

Видео