Black Eyed Peas - Where Is The Love, аккорды

Прокрутка
Тональность
Шрифт
100
Tabs from:Jonas.J.Jakobsen/koRn
Artist:Black Eyed Peas
Song:Where is the love
Tab:BASS

----------2----------------------------3---3----------:G
-----------3-2------2-3------23-----------------------:D
--------3---------3-----5------1-----1---1------------:A
-1----------------------------------------------------:E

-----10-14-12-10-9-10--------------------------------------------------:G  
--10------------------------8-7------------7-5---------------7-5-------:D
8----------------------7-10-----10-8-7--5 8---8-7-5-7---5-8------8 7 8-:A
----------------------8--------------------------------6---------------:E
 
 

Видео