Black Rebel Motorcycle Club - Spread Ya Love Like A Fever, аккорды

Прокрутка
Тональность
Шрифт
100
Tabbed by J the amazin kedster

Band:Black rebel motorcycle club

song:Spread your love

Main Riff(guitar 1):

    E5           G5 A5 
e----------------------------------------
B----------------------------------------
G----------------------------------------
D---2--222-222-22-5-7--------------------
A---2--222-222-22-5-7--------------------
E---0--000-000-00-3-5--------------------

Main Riff(guitar 2):

e----------------------------------------
B----------------------------------------
G---11-11-11-11-11-11h12b----------------
D-------------------------11-------------
A----------------------------------------
E----------------------------------------
i think those two riffs u just play through
the whole song but i'm not sure bout the choruses

if u have any complaints, improvements, praise(please), then u can
e-mail me at jamiekeddy@hotmail.com. This is my first tab so please 
don't be too harsh.
 
 

Видео