Black Rebel Motorcycle Club - Spread Your Love, аккорды

Прокрутка
Тональность
Шрифт
100
Spread Your Love: This is m 1st tab please dont be mean tome!
:P i culdn't find i anywhere



e|-------------------------------------------------|
B|-------------------------------------------------|
G|-------------------------------------------------| 
D|-------------------------------------------------| 
A|-4-4-4-4--4-4-44-4-------4-4-4-4--4-4-44-4-------| 
E|--------------------2--4--------------------2----| 

e|-------------------------------------------------|
B|-------------------------------------------------|
G|-------------------------------------------------| 
D|-------------------------------------------------| 
A|-4-4-4-4--4-4-44-4-------4-4-4-4--4-4-44-4-------| 
E|--------------------2--4-------------------8-10--|
 
 

Видео