Black Rebel Motorcycle Club - Spread Your Love, аккорды

Прокрутка
Тональность
Шрифт
100
Song: Spread Your Love
Artist: Black Rebel Motorcycle Club
Album: B.R.M.C.
Tab by: Michael Massberg (michaelmassberg@gmx.de)

Distorted Bass - COOL!

INTRO
G--------------------------------------------------------|
D--------------------------------------------------------|
A--5--5-5-5--5-5-5-0-5--------5--5-5-5--5-5-5-0-5--------|
E-----------------------1--3-----------------------1-----|

G--------------------------------------------------------|
D--------------------------------------------------3--5--|
A--5--5-5-5--5-5-5-0-5--------5--5-5-5--5-5-5-0-5--------|
E-----------------------1--3-----------------------------|


VERSE
G--------------------------------------------------------|
D-----------------------3--5-----------------------3--5--|
A--5--5-5-5--5-5-5-0-5--------5--5-5-5--5-5-5-0-5--------|
E--------------------------------------------------------|
w/ some variations


BRIDGE
G--777777777-11-14-17-17-17-17-17-17-17-17-17-17-17-17-17--|
D----------------------------------------------------------|
A----------------------------------------------------------|
E----------------------------------------------------------|
I'm not sure of this part!

G-----------------------------------|
D-----------------------------------|
A--3-3-3-3-3-1-0--------------------|
E----------------4-3-3-3-3-1-1-3-3--|
 
 

Видео