Black Rebel Motorcycle Club - Spread Your Love, аккорды

Прокрутка
Тональность
Шрифт
100
Black Rebel Motorcycle Club - Spread Your Love
Tabbed by Pete Baldwin
Sorry its long, however if you want to play the song exactly how Robert Turner
of BRMC does, then follow this tab as it is definitly correct. 
There May be a few slight timing errors however if you listen to the song and
play along, there will be no problems! Hope this helps!

Intro: (distortion)

G|--------------------------------------------|
D|--------------------------------------------|
A|-5--5-55--5-55--5------5--5-55--5-55--5-----|
E|-------------------1/3-------------------1/3|

G|--------------------------------------------|
D|-----------------------------------------3/5|
A|-5--5-55--5-55--5------5--5-55--5-55--5-----|
E|-------------------1/3----------------------|

G|--------------------------------------------|
D|-----------------------------------------3/5|
A|-5--5-55--5-55--5------5--5-55--5-55--5-----|
E|-------------------1/3----------------------|

G|--------------------------------------------|
D|-------------------3/5----------------------|
A|-5--5-55--5-55--5------5--5-55--5-55--5-----|
E|-----------------------------------------1/3|


Main riff: (slight distortion)

G|----------------------|
D|-------------------3/5|  X 18
A|-5--5-55--5-55--5-----|
E|----------------------|

SOLO: (clean)

G|------------------------------------|
D|-------------5/10/121212121212121212|
A|5555555555555-----------------------|
E|------------------------------------|

G|--------------------------------------------------|
D|10--101010--10--10--8--5--3-----------------------|
A|--------------------------------------------------|
E|-----------------------------3--333--3--1--1--1--3|

AFTER SOLO BIT: (slight distortion)

G|--------------------------------------------|
D|-------------------3/5----------------------|
A|-5--5-55--5-55--5------5--5-55--5-55--5-----|
E|-----------------------------------------1/3|


ENDING: (distortion)

G|--------------------------------------------|
D|-----------------------------------------3/5|
A|-5--5-55--5-55--5------5--5-55--5-55--5-----|
E|-------------------1/3----------------------|

G|----------------------------------------------------|
D|------------------------------------------1212121212|
A|-5--5-55--5-55--5------5--5-55--5-55--5-55----------|
E|-------------------1/3------------------------------|

G|---------------------------------------------|      
D|-------------------3/5--------------------3/5|    
A|-5--5-55--5-55--5-------5--5-55--5-55--5-----|
E|---------------------------------------------|     

G|------------------------------------------------|      
D|-------------------3/5--------------------3/5---|   
A|-5--5-55--5-55--5-------5--5-55--5-55--5-------5|
E|------------------------------------------------|   

****ORDER*****

INTRO x1

MAIN RIFF x18

SOLO x1

AFTER SOLO BIT x2

MAIN RIFF x10

SOLO x1

AFTER SOLO BIT x1

ENDING x1
 
 

Видео