Black Rebel Motorcycle Club - Spread Your Love Like A Fever, аккорды

Прокрутка
Тональность
Шрифт
100
----------------------------------------------------------------------------
	 Spread your love like a fever - Black Rebel Motorcycle Club
-----------------------------------------------------------------------------

Tabbed By : Russty
e-mail: russellsback@hotmail.com

Tuning:
standard
G|---------------------------------------------|
D|---------------------------------------------|
A|-5--5-0-5--5-0-5-5------5--5-0-5--5-0-5-5----|
E|-------------------1/3--------------------1--|

G|---------------------------------------------|
D|---------------------------------------------|
A|-5--5-0-5--5-0-5-5------5--5-0-5--5-0-5-5----|
E|-------------------1/3--------------------3/5|
this is the main riff, repeat as many times as neccesary

G|--------------------------------------------------------------------------|
D|--------------------------------------------------------------------------|
A|-5555555/12-12-1212-12-1212-12--14--12--9--12--7--7-7-7--7--2--2--3--3----|
E|--------------------------------------------------------------------------|

this is the bass solo type part, is more or less right, change to your
satisfaction  an thats it reall, please rate tis my first tab
cheers  russty
 
 

Видео