Black Sabbath - It's Alright, аккорды

Прокрутка
Тональность
Шрифт
100
C C C C G G G G C C C C G G G G
-0----0----0----0----3----3----3----3----0----0----0----0----3----3----3----3-|
-1----1----1----1----0----0----0----0----1----1----1----1----0----0----0----0-|
-0----0----0----0----0----0----0----0----0----0----0----0----0----0----0----0-|
-2----2----2----2----0----0----0----0----2----2----2----2----0----0----0----0-|
-3----3----3----3----2----2----2----2----3----3----3----3----2----2----2----2-|
---------------------3----3----3----3------------------------3----3----3----3-|

Told you once about your friends and neighbors 
they were always seeking, but they'll they'll never find it
F F F F F F F F C C C C
-1----1----1----1----1----1----1----1----0----0----0----0-|
-1----1----1----1----1----1----1----1----1----1----1----1-|
-2----2----2----2----2----2----2----2----0----0----0----0-|
-3----3----3----3----3----3----3----3----2----2----2----2-|
-----------------------------------------3----3----3----3-|
----------------------------------------------------------|

It's Alright yes, it's Alright
C C C C G G G G C C C C G G G G
-0----0----0----0----3----3----3----3----0----0----0----0----3----3----3----3-|
-1----1----1----1----0----0----0----0----1----1----1----1----0----0----0----0-|
-0----0----0----0----0----0----0----0----0----0----0----0----0----0----0----0-|
-2----2----2----2----0----0----0----0----2----2----2----2----0----0----0----0-|
-3----3----3----3----2----2----2----2----3----3----3----3----2----2----2----2-|
---------------------3----3----3----3------------------------3----3----3----3-|

Where to going and where to see? 
It's always been that way and it can never be
F F F F F F F F C C C C
-1----1----1----1----1----1----1----1----0----0----0----0-|
-1----1----1----1----1----1----1----1----1----1----1----1-|
-2----2----2----2----2----2----2----2----0----0----0----0-|
-3----3----3----3----3----3----3----3----2----2----2----2-|
-----------------------------------------3----3----3----3-|
----------------------------------------------------------|

It's Alright 'cause it's Alright
C C C C Cb Cb Cb Cb A A A A G G G G
-------------------------------------------------------------3----3----3----3-|
-------------------------------------------------------------0----0----0----0-|
-5----5----5----5----4----4----4----4----2----2----2----2----0----0----0----0-|
-5----5----5----5----4----4----4----4----2----2----2----2----0----0----0----0-|
-3----3----3----3----2----2----2----2----0----0----0----0----2----2----2----2-|
-------------------------------------------------------------3----3----3----3-|
Guitar 1 Freely strum

Give it all and ask for no return and very soon you'll see 
and you'll begin to learn
F F F F F F F F C C C C
-1----1----1----1----1----1----1----1----0----0----0----0-|
-1----1----1----1----1----1----1----1----1----1----1----1-|
-2----2----2----2----2----2----2----2----0----0----0----0-|
-3----3----3----3----3----3----3----3----2----2----2----2-|
-----------------------------------------3----3----3----3-|
----------------------------------------------------------|

That it's Alright 'cause it's Alright
------------------------------------12---------------|
--13~~~~--15----------------13-15~~~---15---13~~~~~~-|
-------------14~~~~~~--12h14-------------------------|
-----------------------------------------------------|
-----------------------------------------------------|
-----------------------------------------------------|

Bill's vocal piece, but adapted for Guitar 1:
C C C C Cb Cb Cb Cb A A A A G G G G
-------------------------------------------------------------3----3----3----3-|
-------------------------------------------------------------0----0----0----0-|
-5----5----5----5----4----4----4----4----2----2----2----2----0----0----0----0-|
-5----5----5----5----4----4----4----4----2----2----2----2----0----0----0----0-|
-3----3----3----3----2----2----2----2----0----0----0----0----2----2----2----2-|
-------------------------------------------------------------3----3----3----3-|

Guitar 2 Freely strum:
F F F F F F F F C C C C
-1----1----1----1----1----1----1----1----0----0----0----0-|
-1----1----1----1----1----1----1----1----1----1----1----1-|
-2----2----2----2----2----2----2----2----0----0----0----0-|
-3----3----3----3----3----3----3----3----2----2----2----2-|
-----------------------------------------3----3----3----3-|
----------------------------------------------------------|
It's Alright 'cause it's Alright

Lead:
-------------------------------------------------------------|
-------------------------------------------------------------|
-------------------------------------------------------------|
--------------1^(3/1)p0-----0h1p0-------------1^(3/1)p0------|
-----------1-3---------3~~~----------------1-3---------3~~~~-|
-1~~~-(1)/3----------------------1~~~-(1)/3------------------|

Guitar 1:
---------------------------------------------------------------------|
----------------------6----------------------------------------------|
-5-7-8-8p7p5-5-5-7-8-7-7/10~~~-8-7-5-7h8p7-4h5p4---------------------|
------------8-----------------------------------5~~~-(1/)-5~~~~~()-|
---------------------------------------------------------------------|
---------------------------------------------------------------------|

Guitar 1:
-------------------------------------------------------------|
-------------------------------------------------------------|
-------------------------------------------------------------|
--------------1^(3/1)p0-----0h1p0-------------1^(3/1)p0------|
-----------1-3---------3~~~----------------1-3---------3~~~~-|
-1~~~-(1)/3----------------------1~~~-(1)/3------------------|

Guitar 1:
-------------------------------------------------------------|
-------------------------------------------------------------|
-------------------------------------------------------------|
--------------1^(3/1)p0-----0h1p0-------------1^(3/1)p0------|
-----------1-3---------3~~~----------------1-3---------3~~~~-|
-1~~~-(1)/3----------------------1~~~-(1)/3------------------|

Guitar 2:
-----------------------------------------------|
-13------13------13------13------13------------|
-15^(17)-15^(17)-15^(17)-15^(17)-15^(17/15)-13-|
-----------------------------------------------|
-----------------------------------------------|
-----------------------------------------------|

E|-------------------------------------------|
B|----------------------------------13-15~~~-|
G|-15p13------------------13h15^(17)---------|
D|------15-13-15p13--13h15-------------------|
A|-----------------15------------------------|
E|-------------------------------------------|

Guitar 1:
-----------------------------------------------|
-13------13------13------13------13------------|
-15^(17)-15^(17)-15^(17)-15^(17)-15^(17/15)-13-|
-----------------------------------------------|
-----------------------------------------------|
-----------------------------------------------|

E|-------------------------------------------|
B|----------------------------------13-15~~~-|
G|-15p13------------------13h15^(17)---------|
D|------15-13-15p13--13h15-------------------|
A|-----------------15------------------------|
E|-------------------------------------------|

Guitar 2:
-----------------------------------|
-15^(17)-15s^(17/15)(10)---------|
-----------------------------------|
--------------------------5~~~~~~~-|
-----------------------------------|
-----------------------------------|

Guitar 1:
--------------------------------------------|
---------15(8)-----------------------------|
--------------------------0-{Let note ring}-|
--------------------------------------------|
--------------------------------------------|
--------------------------------------------|

-----------------------------------------|
---3---3-----2h3-5-3---------------------|
-5---5---2-5--------5-2--2h5p3p2-2-5-2-5-|
--------------------------------5--------|
-----------------------------------------|
-----------------------------------------|

Guitar 1 acoustic 6 string:
C C C C Cb Cb Cb Cb A A A A G G G G
-------------------------------------------------------------3----3----3----3-|
-------------------------------------------------------------0----0----0----0-|
-5----5----5----5----4----4----4----4----2----2----2----2----0----0----0----0-|
-5----5----5----5----4----4----4----4----2----2----2----2----0----0----0----0-|
-3----3----3----3----2----2----2----2----0----0----0----0----2----2----2----2-|
-------------------------------------------------------------3----3----3----3-|

Guitar 2 Freely strum:
Don't you know that it's so good for you, 
you can be making love and see it all go through
-5-3------------------------------------3------3h5p3-----------|
-----6-3--------------------------2-3-5---6-5-3-----3h6p3-5-3--|
--------5-2--2-5p2--2-5--2-5p2-2-5---------------------------5-|
-----------------------5---------------------------------------|
---------------------------------------------------------------|
---------------------------------------------------------------|

Guitar 1 acoustic 6 string:
F F F F F F F F C C C C
-1----1----1----1----1----1----1----1----0----0----0----0-|
-1----1----1----1----1----1----1----1----1----1----1----1-|
-2----2----2----2----2----2----2----2----0----0----0----0-|
-3----3----3----3----3----3----3----3----2----2----2----2-|
-----------------------------------------3----3----3----3-|
----------------------------------------------------------|

Guitar 2 Freely strum:
But it's Alright 'cause it's Alright
----------------------3------------------------------------|
-5-3-------------------5-3---------------------------------|
-----5-3-----2-5-5-2------5-2-2h5p2-5-2------------2h3h5-5-|
--------5-2h5--------------------------5-3-2--2h3h5--------|
-----------------------------------------------------------|
-----------------------------------------------------------|

Guitar 1 acoustic 6 string:
C C C C Cb Cb Cb Cb A A A A G G G G
-------------------------------------------------------------3----3----3----3-|
-------------------------------------------------------------0----0----0----0-|
-5----5----5----5----4----4----4----4----2----2----2----2----0----0----0----0-|
-5----5----5----5----4----4----4----4----2----2----2----2----0----0----0----0-|
-3----3----3----3----2----2----2----2----0----0----0----0----2----2----2----2-|
-------------------------------------------------------------3----3----3----3-|

Guitar 2 Freely strum:
So I told you once about your friends and neighbors 
they were always seeking, but they'll they'll never find it
-3-5------------------------5-3--3---------|
-----6-----------------3-5-6---6-----------|
-------5--3-5--3h5p3--5-------------5-3-2--|
-----------------------------------------5-|
-------------------------------------------|
-------------------------------------------|

Guitar 1 acoustic 6 string:
F F F F F F F F C C C C
-1----1----1----1----1----1----1----1----0----0----0----0-|
-1----1----1----1----1----1----1----1----1----1----1----1-|
-2----2----2----2----2----2----2----2----0----0----0----0-|
-3----3----3----3----3----3----3----3----2----2----2----2-|
-----------------------------------------3----3----3----3-|
----------------------------------------------------------|

Guitar 2 Freely strum:
It's Alright 'cause it's Alright
-------------------------------------------|
-8--5----5-8-5-8-5-8-5-8--8-5-8---5-8-5-5--|
-@--@---5------------------------5-----7---|
-5--5--5------------------------5----------|
-------------------------------------------|
-------------------------------------------|

E|------------3-5-3-5p3-3-------------------|
B|---------3-5---------5--6p3-3-------------|
G|-5--5-5--------------------5-5p3-3--------|
D|-5--7-7-------------------------5-5-3-2-5-|
A|------------------------------------------|
E|------------------------------------------|

Guitar 1 acoustic 6 string:
C C C C Cb Cb Cb Cb A A A A G G G G
-------------------------------------------------------------3----3----3----3-|
-------------------------------------------------------------0----0----0----0-|
-5----5----5----5----4----4----4----4----2----2----2----2----0----0----0----0-|
-5----5----5----5----4----4----4----4----2----2----2----2----0----0----0----0-|
-3----3----3----3----2----2----2----2----0----0----0----0----2----2----2----2-|
-------------------------------------------------------------3----3----3----3-|

Guitar 2 Freely strum:
Ohh Ohhhh Ohhhh Ohhhhh Ohhhhh Ohh
F F F F F F F F C C C C
-1----1----1----1----1----1----1----1----0----0----0----0-|
-1----1----1----1----1----1----1----1----1----1----1----1-|
-2----2----2----2----2----2----2----2----0----0----0----0-|
-3----3----3----3----3----3----3----3----2----2----2----2-|
-----------------------------------------3----3----3----3-|
----------------------------------------------------------|

Guitar 2 Freely strum:
Ohh Ohhh Ohhh Ohh Ohhh Ohhh ee Ohhh
--5-3-5-3h5p3----------------------------------|
--------------5-3------------------------------|
-----------------5-------5-2-3-5-------2h5p2---|
--------------------2-3-5---------2-3-5-----5--|
-----------------------------------------------|
-----------------------------------------------|

E|-------3h5p6------------------------|
B|--3-5-6-----6-5-3----3-5h6p5-5-3----|
G|-----------------5--5-----------5-2-|
D|------------------------------------|
A|------------------------------------|
E|------------------------------------|

Guitar 1 acoustic 6 string (Begin Fade):
C C C C Cb Cb Cb Cb A A A A G G G G
-------------------------------------------------------------3----3----3----3-|
-------------------------------------------------------------0----0----0----0-|
-5----5----5----5----4----4----4----4----2----2----2----2----0----0----0----0-|
-5----5----5----5----4----4----4----4----2----2----2----2----0----0----0----0-|
-3----3----3----3----2----2----2----2----0----0----0----0----2----2----2----2-|
-------------------------------------------------------------3----3----3----3-|

Guitar 2 Freely strum (Begin Fade):
Alright, alright, alright, alright Alright, alright,
alright, alright Alright, alright, alright, alright
F F F F F F F F C C C C
-1----1----1----1----1----1----1----1----0----0----0----0-|
-1----1----1----1----1----1----1----1----1----1----1----1-|
-2----2----2----2----2----2----2----2----0----0----0----0-|
-3----3----3----3----3----3----3----3----2----2----2----2-|
-----------------------------------------3----3----3----3-|
----------------------------------------------------------|
GGuitar 2 Freely strum
 
 

Видео