Black Sabbath - All Moving Partsstand Still, аккорды

Прокрутка
Тональность
Шрифт
100
E|-----------------------------------------------------------------------------|
B|-----------------------7-5-7-5-----------13^(15)-13-10-13p10-------10--------|
G|7^(9/7)-5-7p6p5-7~~~~~-7-5-7-5-7p5--------------------------12^(14)----------|
D|----------------------------------7~~~~------------------------------12p10~~-|
A|-----------------------------------------------------------------------------|
E|-----------------------------------------------------------------------------|
(Guitar 1)
 
E|---------------------------------------------------------|
B|---------------------------------------------------------|
G|-2--------2-2-2-----7h8-7~-2--------2-2-2-----7h8-7~-|
D|-2----5---2-2-2--5--7h8-7~-2----5---2-2-2--5--7h8-7~-|
A|-0-x--3---0-0-0--3-----------0-x--3---0-0-0--3-----------|
E|---x---------------------------x-------------------------|
(Guitar 2)

E|-------------------------------------------------------------------|
B|13^(15)-13-10-13p10-------10---------------------------------------|
G|-------------------12^(14)---------------------------------5-------|
D|----------------------------12p10~~--7-5~----------------5--7~~~~~-|
A|-----------------------------------------------3--5p3h5/7----------|
E|-----------------------------------------(2/)-5--------------------|
(Guitar 1)

E|---------------------------------------------------------|
B|---------------------------------------------------------|
G|-2--------2-2-2-----7h8-7~-2--------2-2-2-----7h8-7~-|
D|-2----5---2-2-2--5--7h8-7~-2----5---2-2-2--5--7h8-7~-|
A|-0-x--3---0-0-0--3-----------0-x--3---0-0-0--3-----------|
E|---x---------------------------x-------------------------|
(Guitar 2)

E|---------------------------------------------------------|
B|---------------------------------------------------------|
G|-2--------2-2-2-----7h8-7~-2--------2-2-2-----7h8-7~-|
D|-2----5---2-2-2--5--7h8-7~-2----5---2-2-2--5--7h8-7~-|
A|-0-x--3---0-0-0--3-----------0-x--3---0-0-0--3-----------|
E|---x---------------------------x-------------------------|
(Guitar 1)
Super animation, turning on a nation, and they say 
"All moving parts stand still"

E|---------------------------------------------------------|
B|---------------------------------------------------------|
G|-2--------2-2-2-----7h8-7~-2--------2-2-2-----7h8-7~-|
D|-2----5---2-2-2--5--7h8-7~-2----5---2-2-2--5--7h8-7~-|
A|-0-x--3---0-0-0--3-----------0-x--3---0-0-0--3-----------|
E|---x---------------------------x-------------------------|
(Guitar 1)
Since he was elected, adrenlin injected, 
he would say "All moving parts should kill"

Bridge:
E|-------------------------------------------------------|
B|-------------------------------------------------------|
G|-9--9-9---9--11-11-11-11--9-9-9-9----------------------|
D|10-10-10-10--12-12-12-12--9-9-9-9----------------------|
A|10-10-10-10--12-12-12-12--7-7-7-7----------------------|
E|-8--8--8--8--10-10-10-10---0-0-0-0-00000000---129-7-|
{..pm open E note..} {Bass, but adapted for guitar}
(Guitar 1)
Just like the hero he's got them all on the run. 
Yes he's won, yeah, yeah.

E|----------------------------------5-------------------------------|
B|----------------------------5----5-7-5-----------5-0---------5----|
G|7p5-------------------5-----7^(9)-----7-5-7p5----5----------@-7~~-|
D|---7-5-7~~--5-5------@-7~~-------------------7~~-----------@------|
A|---------------5-/5-------------------------------5/5-7-------|
E|------------------------------------------------------------------|
(Guitar 1)

E|---------------------------------------------------------|
B|---------------------------------------------------------|
G|-2--------2-2-2-----7h8-7~-2--------2-2-2-----7h8-7~-|
D|-2----5---2-2-2--5--7h8-7~-2----5---2-2-2--5--7h8-7~-|
A|-0-x--3---0-0-0--3-----------0-x--3---0-0-0--3-----------|
E|---x---------------------------x-------------------------|
(Guitar 2)

E|---------------------------------------------------------|
B|---------------------------------------------------------|
G|-2--------2-2-2-----7h8-7~-2--------2-2-2-----7h8-7~-|
D|-2----5---2-2-2--5--7h8-7~-2----5---2-2-2--5--7h8-7~-|
A|-0-x--3---0-0-0--3-----------0-x--3---0-0-0--3-----------|
E|---x---------------------------x-------------------------|
(Guitar 1)
Since he passed the motion, for building in the ocean,
nd they say all men should all be free.

E|---------------------------------------------------------|
B|---------------------------------------------------------|
G|7p5------------7^(9`7)-5-7~~~---7^(9`7)-7-5-7/9-(7)----|
D|---7-5-7~~~~~~---------------------------------------7~~-|
A|---------------------------------------------------------|
E|---------------------------------------------------------|
(Guitar 2)

E|---------------------------------------------------------|
B|---------------------------------------------------------|
G|-2--------2-2-2-----7h8-7~-2--------2-2-2-----7h8-7~-|
D|-2----5---2-2-2--5--7h8-7~-2----5---2-2-2--5--7h8-7~-|
A|-0-x--3---0-0-0--3-----------0-x--3---0-0-0--3-----------|
E|---x---------------------------x-------------------------|
(Guitar 1)
What a combination! Peace and radiation. 
And they say "Free men should fight for me!"

E|------------------------------|
B|------------------------------|
G|7p5---------------7^(9/7~~~~)-|
D|---7-5-7~~~~~~----------------|
A|------------------------------|
E|------------------------------|
(Guitar 2)

Bridge:
E|--------------------------------------------------------------------------|
B|--------------------------------------------------------------------------|
G|-9--9--9--9--11-11-11-11--13-xx-13-xx-13-xx-13-xx-11-xx-11-xx-11-xx-11-xx-|
D|10-10-10-10--12-12-12-12--14-xx-14-xx-14-xx-14-xx-12-xx-12-xx-12-xx-12-xx-|
A|10-10-10-10--12-12-12-12--14-xx-14-xx-14-xx-14-xx-12-xx-12-xx-12-xx-12-xx-|
E|-8--8--8--8--10-10-10-10--12-xx-12-xx-12-xx-12-xx-10-xx-10-xx-10-xx-10-xx-|
(Guitar 1)
Just like his mamma, he seems to get his pleasure from pain, and the rain

E|---------------------------------------------|
B|---------------------------------------------|
G|-9-xx--9-xx--9-xx--9-xx-11-xx-11-xx-11-xx-11-|
D|10-xx-10-xx-10-xx-10-xx-12-xx-12-xx-12-xx-12-|
A|10-xx-10-xx-10-xx-10-xx-12-xx-12-xx-12-xx-12-|
E|-8-xx--8-xx--8-xx--8-xx-10-xx-10-xx-10-xx-10-|
(Guitar 1)
Ain't that strange? Very strange, yeah!

E|--------------------------------------------|
B|--------------------------------------------|
G|---------------5/7-5~---------------5/7-5~--|
D|---5-5-8~----5----------5-5-8~----5---------|
A|5h7-7-----5h7-7------5h7-7-----5h7-7--------|
E|--------------------------------------------|
I like choking toys. You got to see me before
E|--------------------------------------------|
B|--------------------------------------------|
G|---------------5/7-5~----------------5/7-5~-|
D|---5-5-8~----5-----------5-5-8~----5--------|
A|5h7-7-----5h7-7-------5h7-7-----5h7-7-------|
E|--------------------------------------------|

E|--------------------------------------------|
B|--------------------------------------------|
G|---------------5/7-5~---------------5/7-5~--|
D|---5-5-8~----5----------5-5-8~----5---------|
A|5h7-7-----5h7-7------5h7-7-----5h7-7--------|
E|--------------------------------------------|
You meet the boys. Teachers come to school.He's had enough of sticking to

E|--------------------------------------------|
B|--------------------------------------------|
G|---------------5/7-5~----------------5/7-5~-|
D|---5-5-8~----5-----------5-5-8~----5--------|
A|5h7-7-----5h7-7-------5h7-7-----5h7-7-------|
E|--------------------------------------------|

E|------------------------------------------------|
B|------------------------------------------------|
G|---------------5/7-5~---------------5/7-5~-(/8)-|
D|---5-5-8~----5----------5-5-8~----5-------------|
A|5h7-7-----5h7-7------5h7-7-----5h7-7------------|
E|------------------------------------------------|
the rules. Alright!

E|--------------------------------------------------------------------------|
B|--------------------------------------------------------------------------|
G|--------------------------------------------------------------------------|
D|-7-5-5--------------7-5-5--------------7-5-5--------------7-5-5-----------|
A|5---7-5---7-5-5---5----7-5---7-5-5---5----7-5----7-5-5---5---7-5---7-5-5--|
E|--------5----7-5-----------5----7-5------------5----7-5-----------5---7-5-|

E|--------------------------------------------|
B|--------------------------------------------|
G|---------------5/7-5~---------------5/7-5~--|
D|---5-5-8~----5----------5-5-8~----5---------|
A|5h7-7-----5h7-7------5h7-7-----5h7-7--------|
E|--------------------------------------------|
People stop and see me. He's got to be more

E|--------------------------------------------|
B|--------------------------------------------|
G|---------------5/7-5~----------------5/7-5~-|
D|---5-5-8~----5-----------5-5-8~----5--------|
A|5h7-7-----5h7-7-------5h7-7-----5h7-7-------|
E|--------------------------------------------|

E|--------------------------------------------|
B|--------------------------------------------|
G|---------------5/7-5~---------------5/7-5~--|
D|---5-5-8~----5----------5-5-8~----5---------|
A|5h7-7-----5h7-7------5h7-7-----5h7-7--------|
E|--------------------------------------------|
He's got to be more decedant than me.
Just to pass the time, he gets his kicks from licking

E|--------------------------------------------|
B|--------------------------------------------|
G|---------------5/7-5~----------------5/7-5~-|
D|---5-5-8~----5-----------5-5-8~----5--------|
A|5h7-7-----5h7-7-------5h7-7-----5h7-7-------|
E|--------------------------------------------|

E|------------------------------------------------|
B|------------------------------------------------|
G|---------------5/7-5~---------------5/7-5~-(/8)-|
D|---5-5-8~----5----------5-5-8~----5-------------|
A|5h7-7-----5h7-7------5h7-7-----5h7-7------------|
E|------------------------------------------------|
up the wine.

E|--------------------------------------------------------------------------|
B|--------------------------------------------------------------------------|
G|--------------------------------------------------------------------------|
D|-7-5-5--------------7-5-5--------------7-5-5--------------7-5-5-----------|
A|5---7-5---7-5-5---5----7-5---7-5-5---5----7-5----7-5-5---5---7-5---7-5-5--|
E|--------5----7-5-----------5----7-5------------5----7-5-----------5---7-5-|

E|------------------------------------------------------------|
B|------------------------------------------------------------|
G|13-13-13-13-13--12--12--12-12--13-13-13-13-13-12--12--12-12-|
D|14-14-14-14-14--12--12--12-12--14-14-14-14-14-12--12--12-12-|
A|14-14-14-14-14--10--10--10-10--14-14-14-14-14-10--10--10-10-|
E|12-12-12-12-12-----------------12-12-12-12-12---------------|
{d u d u u u u d u d u d u u u u d u}

E|------------------------------------------------------------|
B|------------------------------------------------------------|
G|13-13-13-13-13--12--12--12-12--13-13-13-13-13-12--12--12-12-|
D|14-14-14-14-14--12--12--12-12--14-14-14-14-14-12--12--12-12-|
A|14-14-14-14-14--10--10--10-10--14-14-14-14-14-10--10--10-10-|
E|12-12-12-12-12-----------------12-12-12-12-12---------------|
{d u d u u u u d u d u d u u u u d u}

E|-----------------------------------------------------------------------|
B|--------8-5-8-8p6p5---------------13-15-15-13-15^(17)-15-13------------|
G|-9~~~~~------------7p5-------12/14-------------------------14-12-14p12-|
D|----------------------7~~~~--------------------------------------------|
A|-----------------------------------------------------------------------|
E|-----------------------------------------------------------------------|
(Guitar 1)

E|---------------------------------|
B|---------------------------------|
G|-------12------------------------|
D|(9/)-14---14p12-12-12p10------|
A|---------------------------12~~~-|
E|---------------------------------|
(Guitar 1)

E|---------------------------------------------------------|
B|---------------------------------------------------------|
G|-2--------2-2-2-----7h8-7~-2--------2-2-2-----7h8-7~-|
D|-2----5---2-2-2--5--7h8-7~-2----5---2-2-2--5--7h8-7~-|
A|-0-x--3---0-0-0--3-----------0-x--3---0-0-0--3-----------|
E|---x---------------------------x-------------------------|
(Guitar 1)
Precious silly ladies, all Cynthias and Sadies, 
call him up and he takes their numbers down

E|---------------------------------------------------------|
B|---------------------------------------------------------|
G|-2--------2-2-2-----7h8-7~-2--------2-2-2-----7h8-7~-|
D|-2----5---2-2-2--5--7h8-7~-2----5---2-2-2--5--7h8-7~-|
A|-0-x--3---0-0-0--3-----------0-x--3---0-0-0--3-----------|
E|---x---------------------------x-------------------------|
(Guitar 1)
Says he is a woman, I should of seen it comming, 
and she saying "She's married to a clown!"

Bridge:
E|--------------------------------------------------------------------------|
B|--------------------------------------------------------------------------|
G|-9--9--9--9--11-11-11-11--13-xx-13-xx-13-xx-13-xx-11-xx-11-xx-11-xx-11-xx-|
D|10-10-10-10--12-12-12-12--14-xx-14-xx-14-xx-14-xx-12-xx-12-xx-12-xx-12-xx-|
A|10-10-10-10--12-12-12-12--14-xx-14-xx-14-xx-14-xx-12-xx-12-xx-12-xx-12-xx-|
E|-8--8--8--8--10-10-10-10--12-xx-12-xx-12-xx-12-xx-10-xx-10-xx-10-xx-10-xx-|
(Guitar 1)
Just like a lady, she'll keep you guessing through the night. Not tonight.

E|---------------------------------------------|
B|---------------------------------------------|
G|-9-xx--9-xx--9-xx--9-xx-11-xx-11-xx-11-xx-11-|
D|10-xx-10-xx-10-xx-10-xx-12-xx-12-xx-12-xx-12-|
A|10-xx-10-xx-10-xx-10-xx-12-xx-12-xx-12-xx-12-|
E|-8-xx--8-xx--8-xx--8-xx-10-xx-10-xx-10-xx-10-|
(Guitar 1)
Well I might. Oh alright!, yeah!

E|---------------------------------------------------------|
B|10~~~--5-----5-----------------(3/)-5~~~~----------------|
G|-------7^(9)-7^(9/7)-5~-4~----------------7^(9/7)-5------|
D|--------------------------5/7~~--------------------5-7~~-|
A|---------------------------------------------------------|
E|---------------------------------------------------------|
(Guitar 1 heavy flange and pan)

E|---------------------------------------------------------|
B|---------------------------------------------------------|
G|-2--------2-2-2-----7h8-7~-2--------2-2-2-----7h8-7~-|
D|-2----5---2-2-2--5--7h8-7~-2----5---2-2-2--5--7h8-7~-|
A|-0-x--3---0-0-0--3-----------0-x--3---0-0-0--3-----------|
E|---x---------------------------x-------------------------|
(Guitar 2)
 
 

Видео